  0
SECTION
  2
HEADER
  9
$ACADVER
  1
AC1021
  9
$ACADMAINTVER
 70
    25
  9
$DWGCODEPAGE
  3
ANSI_1252
  9
$LASTSAVEDBY
  1
Utente
  9
$INSBASE
 10
0.0
 20
0.0
 30
0.0
  9
$EXTMIN
 10
-82.50000000000007
 20
-32.50000000000006
 30
-0.0000000000000102
  9
$EXTMAX
 10
-17.49999999999996
 20
32.50000000000006
 30
61.20000000000002
  9
$LIMMIN
 10
0.0
 20
0.0
  9
$LIMMAX
 10
12.0
 20
9.0
  9
$ORTHOMODE
 70
     0
  9
$REGENMODE
 70
     1
  9
$FILLMODE
 70
     1
  9
$QTEXTMODE
 70
     0
  9
$MIRRTEXT
 70
     1
  9
$LTSCALE
 40
1.0
  9
$ATTMODE
 70
     1
  9
$TEXTSIZE
 40
0.2
  9
$TRACEWID
 40
0.05
  9
$TEXTSTYLE
  7
Standard
  9
$CLAYER
  8
Livello 01
  9
$CELTYPE
  6
ByLayer
  9
$CECOLOR
 62
   256
  9
$CELTSCALE
 40
1.0
  9
$DISPSILH
 70
     0
  9
$DIMSCALE
 40
1.0
  9
$DIMASZ
 40
0.18
  9
$DIMEXO
 40
0.0625
  9
$DIMDLI
 40
0.38
  9
$DIMRND
 40
0.0
  9
$DIMDLE
 40
0.0
  9
$DIMEXE
 40
0.18
  9
$DIMTP
 40
0.0
  9
$DIMTM
 40
0.0
  9
$DIMTXT
 40
0.18
  9
$DIMCEN
 40
0.09
  9
$DIMTSZ
 40
0.0
  9
$DIMTOL
 70
     0
  9
$DIMLIM
 70
     0
  9
$DIMTIH
 70
     1
  9
$DIMTOH
 70
     1
  9
$DIMSE1
 70
     0
  9
$DIMSE2
 70
     0
  9
$DIMTAD
 70
     0
  9
$DIMZIN
 70
     0
  9
$DIMBLK
  1

  9
$DIMASO
 70
     1
  9
$DIMSHO
 70
     1
  9
$DIMPOST
  1

  9
$DIMAPOST
  1

  9
$DIMALT
 70
     0
  9
$DIMALTD
 70
     2
  9
$DIMALTF
 40
25.4
  9
$DIMLFAC
 40
1.0
  9
$DIMTOFL
 70
     0
  9
$DIMTVP
 40
0.0
  9
$DIMTIX
 70
     0
  9
$DIMSOXD
 70
     0
  9
$DIMSAH
 70
     0
  9
$DIMBLK1
  1

  9
$DIMBLK2
  1

  9
$DIMSTYLE
  2
STANDARD_ACAD
  9
$DIMCLRD
 70
     0
  9
$DIMCLRE
 70
     0
  9
$DIMCLRT
 70
     0
  9
$DIMTFAC
 40
1.0
  9
$DIMGAP
 40
0.09
  9
$DIMJUST
 70
     0
  9
$DIMSD1
 70
     0
  9
$DIMSD2
 70
     0
  9
$DIMTOLJ
 70
     1
  9
$DIMTZIN
 70
     0
  9
$DIMALTZ
 70
     0
  9
$DIMALTTZ
 70
     0
  9
$DIMUPT
 70
     0
  9
$DIMDEC
 70
     4
  9
$DIMTDEC
 70
     4
  9
$DIMALTU
 70
     2
  9
$DIMALTTD
 70
     2
  9
$DIMTXSTY
  7
Standard
  9
$DIMAUNIT
 70
     0
  9
$DIMADEC
 70
     0
  9
$DIMALTRND
 40
0.0
  9
$DIMAZIN
 70
     0
  9
$DIMDSEP
 70
    46
  9
$DIMATFIT
 70
     3
  9
$DIMFRAC
 70
     0
  9
$DIMLDRBLK
  1

  9
$DIMLUNIT
 70
     2
  9
$DIMLWD
 70
    -2
  9
$DIMLWE
 70
    -2
  9
$DIMTMOVE
 70
     2
  9
$DIMFXL
 40
1.0
  9
$DIMFXLON
 70
     0
  9
$DIMJOGANG
 40
0.7853981633974483
  9
$DIMTFILL
 70
     0
  9
$DIMTFILLCLR
 70
     0
  9
$DIMARCSYM
 70
     0
  9
$DIMLTYPE
  6

  9
$DIMLTEX1
  6

  9
$DIMLTEX2
  6

  9
$LUNITS
 70
     2
  9
$LUPREC
 70
     3
  9
$SKETCHINC
 40
0.1
  9
$FILLETRAD
 40
0.0
  9
$AUNITS
 70
     0
  9
$AUPREC
 70
     0
  9
$MENU
  1
.
  9
$ELEVATION
 40
0.0
  9
$PELEVATION
 40
0.0
  9
$THICKNESS
 40
0.0
  9
$LIMCHECK
 70
     0
  9
$CHAMFERA
 40
0.0
  9
$CHAMFERB
 40
0.0
  9
$CHAMFERC
 40
0.0
  9
$CHAMFERD
 40
0.0
  9
$SKPOLY
 70
     0
  9
$TDCREATE
 40
2459901.671508565
  9
$TDUCREATE
 40
2459901.629841898
  9
$TDUPDATE
 40
2459901.671521875
  9
$TDUUPDATE
 40
2459901.629855209
  9
$TDINDWG
 40
0.0000000116
  9
$TDUSRTIMER
 40
0.0000000116
  9
$USRTIMER
 70
     1
  9
$ANGBASE
 50
0.0
  9
$ANGDIR
 70
     0
  9
$PDMODE
 70
     0
  9
$PDSIZE
 40
0.0
  9
$PLINEWID
 40
0.0
  9
$SPLFRAME
 70
     0
  9
$SPLINETYPE
 70
     6
  9
$SPLINESEGS
 70
     8
  9
$HANDSEED
  5
2AC
  9
$SURFTAB1
 70
     6
  9
$SURFTAB2
 70
     6
  9
$SURFTYPE
 70
     6
  9
$SURFU
 70
     6
  9
$SURFV
 70
     6
  9
$UCSBASE
  2

  9
$UCSNAME
  2

  9
$UCSORG
 10
0.0
 20
0.0
 30
0.0
  9
$UCSXDIR
 10
1.0
 20
0.0
 30
0.0
  9
$UCSYDIR
 10
0.0
 20
1.0
 30
0.0
  9
$UCSORTHOREF
  2

  9
$UCSORTHOVIEW
 70
     0
  9
$UCSORGTOP
 10
0.0
 20
0.0
 30
0.0
  9
$UCSORGBOTTOM
 10
0.0
 20
0.0
 30
0.0
  9
$UCSORGLEFT
 10
0.0
 20
0.0
 30
0.0
  9
$UCSORGRIGHT
 10
0.0
 20
0.0
 30
0.0
  9
$UCSORGFRONT
 10
0.0
 20
0.0
 30
0.0
  9
$UCSORGBACK
 10
0.0
 20
0.0
 30
0.0
  9
$PUCSBASE
  2

  9
$PUCSNAME
  2

  9
$PUCSORG
 10
0.0
 20
0.0
 30
0.0
  9
$PUCSXDIR
 10
1.0
 20
0.0
 30
0.0
  9
$PUCSYDIR
 10
0.0
 20
1.0
 30
0.0
  9
$PUCSORTHOREF
  2

  9
$PUCSORTHOVIEW
 70
     0
  9
$PUCSORGTOP
 10
0.0
 20
0.0
 30
0.0
  9
$PUCSORGBOTTOM
 10
0.0
 20
0.0
 30
0.0
  9
$PUCSORGLEFT
 10
0.0
 20
0.0
 30
0.0
  9
$PUCSORGRIGHT
 10
0.0
 20
0.0
 30
0.0
  9
$PUCSORGFRONT
 10
0.0
 20
0.0
 30
0.0
  9
$PUCSORGBACK
 10
0.0
 20
0.0
 30
0.0
  9
$USERI1
 70
     0
  9
$USERI2
 70
     0
  9
$USERI3
 70
     0
  9
$USERI4
 70
     0
  9
$USERI5
 70
     0
  9
$USERR1
 40
0.0
  9
$USERR2
 40
0.0
  9
$USERR3
 40
0.0
  9
$USERR4
 40
0.0
  9
$USERR5
 40
0.0
  9
$WORLDVIEW
 70
     1
  9
$SHADEDGE
 70
     3
  9
$SHADEDIF
 70
    70
  9
$TILEMODE
 70
     1
  9
$MAXACTVP
 70
    64
  9
$PINSBASE
 10
0.0
 20
0.0
 30
0.0
  9
$PLIMCHECK
 70
     0
  9
$PEXTMIN
 10
1.000000000000000E+20
 20
1.000000000000000E+20
 30
1.000000000000000E+20
  9
$PEXTMAX
 10
-1.000000000000000E+20
 20
-1.000000000000000E+20
 30
-1.000000000000000E+20
  9
$PLIMMIN
 10
0.0
 20
0.0
  9
$PLIMMAX
 10
12.0
 20
9.0
  9
$UNITMODE
 70
     0
  9
$VISRETAIN
 70
     1
  9
$PLINEGEN
 70
     0
  9
$PSLTSCALE
 70
     1
  9
$TREEDEPTH
 70
  3020
  9
$CMLSTYLE
  2
Standard
  9
$CMLJUST
 70
     0
  9
$CMLSCALE
 40
1.0
  9
$PROXYGRAPHICS
 70
     1
  9
$MEASUREMENT
 70
     1
  9
$CELWEIGHT
370
    -1
  9
$ENDCAPS
280
     0
  9
$JOINSTYLE
280
     0
  9
$LWDISPLAY
290
     0
  9
$INSUNITS
 70
     4
  9
$HYPERLINKBASE
  1

  9
$STYLESHEET
  1

  9
$XEDIT
290
     1
  9
$CEPSNTYPE
380
     0
  9
$PSTYLEMODE
290
     1
  9
$FINGERPRINTGUID
  2
{404d21ec-f2d0-4c66-afcb-a5e1cc42a713}
  9
$VERSIONGUID
  2
{FAEB1C32-E019-11D5-929B-00C0DF256EC4}
  9
$EXTNAMES
290
     1
  9
$PSVPSCALE
 40
0.0
  9
$OLESTARTUP
290
     0
  9
$SORTENTS
280
   127
  9
$INDEXCTL
280
     0
  9
$HIDETEXT
280
     1
  9
$XCLIPFRAME
290
     0
  9
$HALOGAP
280
     0
  9
$OBSCOLOR
 70
   257
  9
$OBSLTYPE
280
     0
  9
$INTERSECTIONDISPLAY
280
     0
  9
$INTERSECTIONCOLOR
 70
   257
  9
$DIMASSOC
280
     2
  9
$PROJECTNAME
  1

  9
$CAMERADISPLAY
290
     0
  9
$LENSLENGTH
 40
50.0
  9
$CAMERAHEIGHT
 40
0.0
  9
$STEPSPERSEC
 40
2.0
  9
$STEPSIZE
 40
6.0
  9
$3DDWFPREC
 40
2.0
  9
$PSOLWIDTH
 40
0.25
  9
$PSOLHEIGHT
 40
4.0
  9
$LOFTANG1
 40
1.570796326794897
  9
$LOFTANG2
 40
1.570796326794897
  9
$LOFTMAG1
 40
0.0
  9
$LOFTMAG2
 40
0.0
  9
$LOFTPARAM
 70
     7
  9
$LOFTNORMALS
280
     1
  9
$LATITUDE
 40
37.795
  9
$LONGITUDE
 40
-122.394
  9
$NORTHDIRECTION
 40
0.0
  9
$TIMEZONE
 70
 -8000
  9
$LIGHTGLYPHDISPLAY
280
     1
  9
$TILEMODELIGHTSYNCH
280
     1
  9
$CMATERIAL
347
44
  9
$SOLIDHIST
280
     0
  9
$SHOWHIST
280
     1
  9
$DWFFRAME
280
     2
  9
$DGNFRAME
280
     2
  9
$REALWORLDSCALE
290
     1
  9
$INTERFERECOLOR
 62
   256
  9
$CSHADOW
280
     0
  9
$SHADOWPLANELOCATION
 40
0.0
  0
ENDSEC
  0
SECTION
  2
CLASSES
  0
CLASS
  1
ACDBDICTIONARYWDFLT
  2
AcDbDictionaryWithDefault
  3
ObjectDBX Classes
 90
        0
 91
        3
280
     0
281
     0
  0
CLASS
  1
VISUALSTYLE
  2
AcDbVisualStyle
  3
ObjectDBX Classes
 90
     4095
 91
        3
280
     0
281
     0
  0
CLASS
  1
MATERIAL
  2
AcDbMaterial
  3
ObjectDBX Classes
 90
     1153
 91
        3
280
     0
281
     0
  0
CLASS
  1
SCALE
  2
AcDbScale
  3
ObjectDBX Classes
 90
     1153
 91
        3
280
     0
281
     0
  0
CLASS
  1
TABLESTYLE
  2
AcDbTableStyle
  3
ObjectDBX Classes
 90
     4095
 91
        3
280
     0
281
     0
  0
CLASS
  1
MLEADERSTYLE
  2
AcDbMLeaderStyle
  3
ACDB_MLEADERSTYLE_CLASS
 90
     4095
 91
        3
280
     0
281
     0
  0
CLASS
  1
SUN
  2
AcDbSun
  3
SCENEOE
 90
     1153
 91
        3
280
     0
281
     0
  0
CLASS
  1
DICTIONARYVAR
  2
AcDbDictionaryVar
  3
ObjectDBX Classes
 90
        0
 91
        3
280
     0
281
     0
  0
CLASS
  1
CELLSTYLEMAP
  2
AcDbCellStyleMap
  3
ObjectDBX Classes
 90
     1152
 91
        3
280
     0
281
     0
  0
ENDSEC
  0
SECTION
  2
TABLES
  0
TABLE
  2
VPORT
  5
8
330
0
100
AcDbSymbolTable
 70
     1
  0
VPORT
  5
29
330
8
100
AcDbSymbolTableRecord
100
AcDbViewportTableRecord
  2
*Active
 70
     0
 10
0.0
 20
0.0
 11
1.0
 21
1.0
 12
10.42990654205607
 22
4.5
 13
0.0
 23
0.0
 14
0.5
 24
0.5
 15
0.5
 25
0.5
 16
0.0
 26
0.0
 36
1.0
 17
0.0
 27
0.0
 37
0.0
 40
9.0
 41
1.972972972850329
 42
50.0
 43
0.0
 44
0.0
 50
0.0
 51
0.0
 71
     0
 72
   100
 73
     1
 74
     3
 75
     0
 76
     0
 77
     0
 78
     0
281
     0
 65
     1
110
0.0
120
0.0
130
0.0
111
1.0
121
0.0
131
0.0
112
0.0
122
1.0
132
0.0
 79
     0
146
0.0
348
2F
 60
     3
 61
     5
292
     1
282
     1
141
0.0
142
0.0
 63
   250
361
5D
  0
ENDTAB
  0
TABLE
  2
LTYPE
  5
5
330
0
100
AcDbSymbolTable
 70
     1
  0
LTYPE
  5
14
330
5
100
AcDbSymbolTableRecord
100
AcDbLinetypeTableRecord
  2
ByBlock
 70
     0
  3

 72
    65
 73
     0
 40
0.0
  0
LTYPE
  5
15
330
5
100
AcDbSymbolTableRecord
100
AcDbLinetypeTableRecord
  2
ByLayer
 70
     0
  3

 72
    65
 73
     0
 40
0.0
  0
LTYPE
  5
16
330
5
100
AcDbSymbolTableRecord
100
AcDbLinetypeTableRecord
  2
Continuous
 70
     0
  3
Solid line
 72
    65
 73
     0
 40
0.0
  0
ENDTAB
  0
TABLE
  2
LAYER
  5
2
330
0
100
AcDbSymbolTable
 70
     2
  0
LAYER
  5
10
330
2
100
AcDbSymbolTableRecord
100
AcDbLayerTableRecord
  2
0
 70
     0
 62
     7
  6
Continuous
370
    -3
390
F
347
46
  0
LAYER
  5
5F
330
2
100
AcDbSymbolTableRecord
100
AcDbLayerTableRecord
  2
Livello 01
 70
     0
 62
    18
420
        0
  6
Continuous
370
    -3
390
F
347
46
  0
ENDTAB
  0
TABLE
  2
STYLE
  5
3
330
0
100
AcDbSymbolTable
 70
     1
  0
STYLE
  5
11
330
3
100
AcDbSymbolTableRecord
100
AcDbTextStyleTableRecord
  2
Standard
 70
     0
 40
0.0
 41
1.0
 50
0.0
 71
     0
 42
0.2
  3
txt
  4

  0
ENDTAB
  0
TABLE
  2
VIEW
  5
6
330
0
100
AcDbSymbolTable
 70
     0
  0
ENDTAB
  0
TABLE
  2
UCS
  5
7
330
0
100
AcDbSymbolTable
 70
     0
  0
ENDTAB
  0
TABLE
  2
APPID
  5
9
330
0
100
AcDbSymbolTable
 70
     3
  0
APPID
  5
12
330
9
100
AcDbSymbolTableRecord
100
AcDbRegAppTableRecord
  2
ACAD
 70
     0
  0
APPID
  5
5E
330
9
100
AcDbSymbolTableRecord
100
AcDbRegAppTableRecord
  2
Rhino
 70
     0
  0
APPID
  5
2A4
330
9
100
AcDbSymbolTableRecord
100
AcDbRegAppTableRecord
  2
ACAD_MLEADERVER
 70
     0
  0
ENDTAB
  0
TABLE
  2
DIMSTYLE
  5
A
330
0
100
AcDbSymbolTable
 70
     1
100
AcDbDimStyleTable
  0
DIMSTYLE
105
27
330
A
100
AcDbSymbolTableRecord
100
AcDbDimStyleTableRecord
  2
STANDARD_ACAD
 70
     0
178
     0
340
11
  0
ENDTAB
  0
TABLE
  2
BLOCK_RECORD
  5
1
330
0
100
AcDbSymbolTable
 70
    10
  0
BLOCK_RECORD
  5
1F
330
1
100
AcDbSymbolTableRecord
100
AcDbBlockTableRecord
  2
*Model_Space
340
22
 70
     0
280
     1
281
     0
  0
BLOCK_RECORD
  5
1B
330
1
100
AcDbSymbolTableRecord
100
AcDbBlockTableRecord
  2
*Paper_Space
340
1E
 70
     0
280
     1
281
     0
  0
BLOCK_RECORD
  5
23
330
1
100
AcDbSymbolTableRecord
100
AcDbBlockTableRecord
  2
*Paper_Space0
340
26
 70
     0
280
     1
281
     0
  0
BLOCK_RECORD
  5
60
330
1
100
AcDbSymbolTableRecord
100
AcDbBlockTableRecord
  2
3305T550-A0
340
0
102
{BLKREFS
331
26E
102
}
 70
     0
280
     1
281
     0
  0
BLOCK_RECORD
  5
61
330
1
100
AcDbSymbolTableRecord
100
AcDbBlockTableRecord
  2
10CA21060YY
340
0
102
{BLKREFS
331
AC
102
}
 70
     0
280
     1
281
     0
  0
BLOCK_RECORD
  5
AD
330
1
100
AcDbSymbolTableRecord
100
AcDbBlockTableRecord
  2
10BO11360YY
340
0
102
{BLKREFS
331
F2
102
}
 70
     0
280
     1
281
     0
  0
BLOCK_RECORD
  5
F3
330
1
100
AcDbSymbolTableRecord
100
AcDbBlockTableRecord
  2
10OR19860YY
340
0
102
{BLKREFS
331
FE
102
}
 70
     0
280
     1
281
     0
  0
BLOCK_RECORD
  5
FF
330
1
100
AcDbSymbolTableRecord
100
AcDbBlockTableRecord
  2
10VI23060YY
340
0
102
{BLKREFS
331
13B
331
13C
102
}
 70
     0
280
     1
281
     0
  0
BLOCK_RECORD
  5
13D
330
1
100
AcDbSymbolTableRecord
100
AcDbBlockTableRecord
  2
10PL11960YY
340
0
102
{BLKREFS
331
1EA
102
}
 70
     0
280
     1
281
     0
  0
BLOCK_RECORD
  5
1EB
330
1
100
AcDbSymbolTableRecord
100
AcDbBlockTableRecord
  2
10SP04060YY
340
0
102
{BLKREFS
331
208
102
}
 70
     0
280
     1
281
     0
  0
BLOCK_RECORD
  5
209
330
1
100
AcDbSymbolTableRecord
100
AcDbBlockTableRecord
  2
10VI23160YY
340
0
102
{BLKREFS
331
240
102
}
 70
     0
280
     1
281
     0
  0
BLOCK_RECORD
  5
241
330
1
100
AcDbSymbolTableRecord
100
AcDbBlockTableRecord
  2
10AN0156000
340
0
102
{BLKREFS
331
26B
102
}
 70
     0
280
     1
281
     0
  0
ENDTAB
  0
ENDSEC
  0
SECTION
  2
BLOCKS
  0
BLOCK
  5
20
330
1F
100
AcDbEntity
  8
0
100
AcDbBlockBegin
  2
*Model_Space
 70
     0
 10
0.0
 20
0.0
 30
0.0
  3
*Model_Space
  1

  0
ENDBLK
  5
21
330
1F
100
AcDbEntity
  8
0
100
AcDbBlockEnd
  0
BLOCK
  5
1C
330
1B
100
AcDbEntity
 67
     1
  8
0
100
AcDbBlockBegin
  2
*Paper_Space
 70
     0
 10
0.0
 20
0.0
 30
0.0
  3
*Paper_Space
  1

  0
ENDBLK
  5
1D
330
1B
100
AcDbEntity
 67
     1
  8
0
100
AcDbBlockEnd
  0
BLOCK
  5
24
330
23
100
AcDbEntity
  8
0
100
AcDbBlockBegin
  2
*Paper_Space0
 70
     0
 10
0.0
 20
0.0
 30
0.0
  3
*Paper_Space0
  1

  0
ENDBLK
  5
25
330
23
100
AcDbEntity
  8
0
100
AcDbBlockEnd
  0
BLOCK
  5
26C
330
60
100
AcDbEntity
  8
0
100
AcDbBlockBegin
  2
3305T550-A0
 70
     0
 10
0.0
 20
0.0
 30
0.0
  3
3305T550-A0
  1

  0
INSERT
  5
AC
330
60
100
AcDbEntity
  8
Livello 01
100
AcDbBlockReference
  2
10CA21060YY
 10
-0.0000000000000334
 20
0.0000000000000289
 30
-50.0
 50
179.9999999999999
210
1.0
220
7.563394355258820E-16
230
-7.319861106547490E-17
  0
INSERT
  5
F2
330
60
100
AcDbEntity
  8
Livello 01
100
AcDbBlockReference
  2
10BO11360YY
 10
-50.0000000000001
 20
49.9999999999999
 30
6.99999999999996
 50
90.0000000000001
  0
INSERT
  5
FE
330
60
100
AcDbEntity
  8
Livello 01
100
AcDbBlockReference
  2
10OR19860YY
 10
-50.0
 20
-0.000000000000057
 30
8.00000000000003
 50
269.9999999999999
  0
INSERT
  5
13B
330
60
100
AcDbEntity
  8
Livello 01
100
AcDbBlockReference
  2
10VI23060YY
 10
50.0
 20
42.5
 30
6.000000000000028
 50
0.0000000000000668
210
-1.014799458179410E-16
220
1.0
230
3.084324698176450E-16
  0
INSERT
  5
13C
330
60
100
AcDbEntity
  8
Livello 01
100
AcDbBlockReference
  2
10VI23060YY
 10
-50.0
 20
42.5
 30
6.000000000000024
 50
359.9999999999999
210
-2.098473409679320E-17
220
-1.0
230
3.084324698176450E-16
  0
INSERT
  5
1EA
330
60
100
AcDbEntity
  8
Livello 01
100
AcDbBlockReference
  2
10PL11960YY
 10
-50.0
 20
0.0000000000000128
 30
47.0
 50
90.00000000000011
  0
INSERT
  5
208
330
60
100
AcDbEntity
  8
Livello 01
100
AcDbBlockReference
  2
10SP04060YY
 10
-0.000000000000034
 20
31.50000000000001
 30
59.5
 50
0.0000000000000871
210
-1.0
220
-1.038156676673140E-15
230
-9.944137426094540E-17
  0
INSERT
  5
240
330
60
100
AcDbEntity
  8
Livello 01
100
AcDbBlockReference
  2
10VI23160YY
 10
-50.0
 20
0.0000000000000175
 30
42.5
 50
90.00000000000006
  0
INSERT
  5
26B
330
60
100
AcDbEntity
  8
Livello 01
100
AcDbBlockReference
  2
10AN0156000
 10
50.00000000000001
 20
-0.0000000000000247
 30
-58.49999999999999
 50
89.99999999999994
210
-1.827066082142860E-16
220
-1.046950670895250E-15
230
-1.0
  0
ENDBLK
  5
26D
330
60
100
AcDbEntity
  8
0
100
AcDbBlockEnd
  0
BLOCK
  5
AA
330
61
100
AcDbEntity
  8
0
100
AcDbBlockBegin
  2
10CA21060YY
 70
     0
 10
0.0
 20
0.0
 30
0.0
  3
10CA21060YY
  1

  0
ARC
  5
62
330
61
100
AcDbEntity
  8
Livello 01
100
AcDbCircle
 10
0.0
 20
0.0
 30
0.0
 40
21.2
210
0.0
220
1.0
230
0.0
100
AcDbArc
 50
180.0
 51
89.99999999999999
  0
ARC
  5
63
330
61
100
AcDbEntity
  8
Livello 01
100
AcDbCircle
 10
0.0
 20
0.0
 30
30.0
 40
21.2
210
0.0
220
-1.0
230
0.0
100
AcDbArc
 50
270.0
 51
89.99999999999999
  0
LINE
  5
64
330
61
100
AcDbEntity
  8
Livello 01
100
AcDbLine
 10
0.0
 20
-30.0
 30
21.2
 11
0.0
 21
-0.0000000000000018
 31
21.2
  0
ARC
  5
65
330
61
100
AcDbEntity
  8
Livello 01
100
AcDbCircle
 10
0.0
 20
0.0
 30
0.0
 40
21.2
210
0.0
220
1.0
230
0.0
100
AcDbArc
 50
90.0
 51
180.0
  0
ARC
  5
66
330
61
100
AcDbEntity
  8
Livello 01
100
AcDbCircle
 10
0.0
 20
0.0
 30
30.0
 40
21.2
210
0.0
220
-1.0
230
0.0
100
AcDbArc
 50
90.0
 51
270.0
  0
LINE
  5
67
330
61
100
AcDbEntity
  8
Livello 01
100
AcDbLine
 10
0.0
 20
-10.11296179637719
 30
-18.99999999999998
 11
0.0
 21
-10.0
 31
-19.18799999999999
  0
ARC
  5
68
330
61
100
AcDbEntity
  8
Livello 01
100
AcDbCircle
 10
0.0
 20
0.0000000000000073
 30
-10.0
 40
19.188
210
0.0
220
1.0
230
0.0
100
AcDbArc
 50
90.00000000000001
 51
270.0
  0
CIRCLE
  5
69
330
61
100
AcDbEntity
  8
Livello 01
100
AcDbCircle
 10
0.0
 20
0.0000000000000073
 30
9.0
 40
19.188
210
0.0
220
-1.0
230
0.0
  0
LINE
  5
6A
330
61
100
AcDbEntity
  8
Livello 01
100
AcDbLine
 10
0.0
 20
-9.0
 30
19.18800000000001
 11
0.0
 21
-10.0
 31
19.18800000000001
  0
ARC
  5
6B
330
61
100
AcDbEntity
  8
Livello 01
100
AcDbCircle
 10
0.0
 20
0.0000000000000073
 30
-10.0
 40
19.188
210
0.0
220
1.0
230
0.0
100
AcDbArc
 50
270.0
 51
90.0
  0
CIRCLE
  5
6C
330
61
100
AcDbEntity
  8
Livello 01
100
AcDbCircle
 10
0.0
 20
0.0000000000000073
 30
3.0
 40
19.188
210
0.0
220
-1.0
230
0.0
  0
LINE
  5
6D
330
61
100
AcDbEntity
  8
Livello 01
100
AcDbLine
 10
0.0
 20
-3.0
 30
19.18800000000001
 11
0.0
 21
-9.000000000000002
 31
19.18800000000001
  0
ARC
  5
6E
330
61
100
AcDbEntity
  8
Livello 01
100
AcDbCircle
 10
0.0
 20
0.0
 30
-35.0
 40
19.0
210
0.0
220
1.0
230
0.0
100
AcDbArc
 50
0.0
 51
180.0
  0
ARC
  5
6F
330
61
100
AcDbEntity
  8
Livello 01
100
AcDbCircle
 10
0.0
 20
0.0000000000000073
 30
10.1129617963772
 40
19.0
210
0.0
220
-1.0
230
0.0
100
AcDbArc
 50
180.0
 51
270.0
  0
LINE
  5
70
330
61
100
AcDbEntity
  8
Livello 01
100
AcDbLine
 10
-19.0
 20
-10.1129617963772
 30
0.0
 11
-19.0
 21
-34.99999999999999
 31
0.0
  0
ARC
  5
71
330
61
100
AcDbEntity
  8
Livello 01
100
AcDbCircle
 10
0.0
 20
0.0
 30
-35.0
 40
19.0
210
0.0
220
1.0
230
0.0
100
AcDbArc
 50
180.0
 51
0.0
  0
ARC
  5
72
330
61
100
AcDbEntity
  8
Livello 01
100
AcDbCircle
 10
0.0
 20
0.0000000000000073
 30
10.1129617963772
 40
19.0
210
0.0
220
-1.0
230
0.0
100
AcDbArc
 50
270.0
 51
180.0
  0
CIRCLE
  5
73
330
61
100
AcDbEntity
  8
Livello 01
100
AcDbCircle
 10
0.0
 20
0.0
 30
30.0
 40
19.75
210
0.0
220
-1.0
230
0.0
  0
CIRCLE
  5
74
330
61
100
AcDbEntity
  8
Livello 01
100
AcDbCircle
 10
0.0
 20
0.0
 30
-35.0
 40
19.75
210
0.0
220
1.0
230
0.0
  0
LINE
  5
75
330
61
100
AcDbEntity
  8
Livello 01
100
AcDbLine
 10
0.0
 20
-30.0
 30
19.75
 11
0.0
 21
-35.0
 31
19.75
  0
CIRCLE
  5
76
330
61
100
AcDbEntity
  8
Livello 01
100
AcDbCircle
 10
0.0
 20
0.0000000000000073
 30
2.5
 40
20.5
210
0.0
220
-1.0
230
0.0
  0
CIRCLE
  5
77
330
61
100
AcDbEntity
  8
Livello 01
100
AcDbCircle
 10
0.0
 20
0.0000000000000073
 30
0.0
 40
20.5
210
0.0
220
-1.0
230
0.0
  0
LINE
  5
78
330
61
100
AcDbEntity
  8
Livello 01
100
AcDbLine
 10
-20.5
 20
-2.5
 30
0.0000000000000073
 11
-20.5
 21
-0.0000000000000006
 31
0.0000000000000073
  0
ARC
  5
79
330
61
100
AcDbEntity
  8
Livello 01
100
AcDbCircle
 10
0.0
 20
0.0000000000000073
 30
2.5
 40
19.688
210
0.0
220
-1.0
230
0.0
100
AcDbArc
 50
90.0
 51
270.0
  0
LINE
  5
7A
330
61
100
AcDbEntity
  8
Livello 01
100
AcDbLine
 10
0.0
 20
-2.999999999999996
 30
19.18800000000001
 11
0.0
 21
-2.499999999999991
 31
19.68800000000001
  0
ARC
  5
7B
330
61
100
AcDbEntity
  8
Livello 01
100
AcDbCircle
 10
0.0
 20
0.0000000000000073
 30
2.5
 40
19.688
210
0.0
220
-1.0
230
0.0
100
AcDbArc
 50
270.0
 51
89.99999999999999
  0
CIRCLE
  5
7C
330
61
100
AcDbEntity
  8
Livello 01
100
AcDbCircle
 10
0.0
 20
0.0
 30
-15.0
 40
21.2
210
0.0
220
1.0
230
0.0
  0
LINE
  5
7D
330
61
100
AcDbEntity
  8
Livello 01
100
AcDbLine
 10
21.2
 20
-30.0
 30
0.0
 11
21.2
 21
0.0000000000000009
 31
0.0
  0
LINE
  5
7E
330
61
100
AcDbEntity
  8
Livello 01
100
AcDbLine
 10
0.0
 20
-30.0
 30
-21.2
 11
0.0
 21
0.0000000000000009
 31
-21.2
  0
LINE
  5
7F
330
61
100
AcDbEntity
  8
Livello 01
100
AcDbLine
 10
-21.2
 20
-30.0
 30
0.0
 11
-21.2
 21
0.0000000000000009
 31
0.0
  0
LINE
  5
80
330
61
100
AcDbEntity
  8
Livello 01
100
AcDbLine
 10
-0.0000000000000018
 20
-35.0
 30
-19.75
 11
-0.0000000000000018
 21
-35.0
 31
-18.99999999999999
  0
LINE
  5
81
330
61
100
AcDbEntity
  8
Livello 01
100
AcDbLine
 10
-0.0000000000000018
 20
-35.0
 30
19.0
 11
-0.0000000000000018
 21
-35.0
 31
19.75
  0
LINE
  5
82
330
61
100
AcDbEntity
  8
Livello 01
100
AcDbLine
 10
-19.75
 20
-35.0
 30
-0.0000000000000018
 11
-19.0
 21
-35.0
 31
-0.0000000000000018
  0
LINE
  5
83
330
61
100
AcDbEntity
  8
Livello 01
100
AcDbLine
 10
19.0
 20
-35.0
 30
-0.0000000000000018
 11
19.75
 21
-35.0
 31
-0.0000000000000018
  0
LINE
  5
84
330
61
100
AcDbEntity
  8
Livello 01
100
AcDbLine
 10
-18.99999999999999
 20
-10.11296179637719
 30
0.0000000000000073
 11
-19.188
 21
-10.0
 31
0.0000000000000073
  0
LINE
  5
85
330
61
100
AcDbEntity
  8
Livello 01
100
AcDbLine
 10
0.0
 20
-10.11296179637719
 30
19.0
 11
0.0
 21
-10.0
 31
19.18800000000001
  0
LINE
  5
86
330
61
100
AcDbEntity
  8
Livello 01
100
AcDbLine
 10
18.99999999999999
 20
-10.11296179637719
 30
0.0000000000000073
 11
19.188
 21
-10.0
 31
0.0000000000000073
  0
CIRCLE
  5
87
330
61
100
AcDbEntity
  8
Livello 01
100
AcDbCircle
 10
0.0
 20
0.0000000000000073
 30
9.5
 40
19.188
210
0.0
220
-1.0
230
0.0
  0
LINE
  5
88
330
61
100
AcDbEntity
  8
Livello 01
100
AcDbLine
 10
-19.188
 20
-9.0
 30
0.0000000000000073
 11
-19.188
 21
-10.0
 31
0.0000000000000073
  0
LINE
  5
89
330
61
100
AcDbEntity
  8
Livello 01
100
AcDbLine
 10
0.0
 20
-9.0
 30
-19.18799999999999
 11
0.0
 21
-10.0
 31
-19.18799999999999
  0
LINE
  5
8A
330
61
100
AcDbEntity
  8
Livello 01
100
AcDbLine
 10
19.188
 20
-9.0
 30
0.0000000000000073
 11
19.188
 21
-10.0
 31
0.0000000000000073
  0
LINE
  5
8B
330
61
100
AcDbEntity
  8
Livello 01
100
AcDbLine
 10
-0.0000000000000018
 20
0.0
 30
-21.2
 11
-0.0000000000000018
 21
0.0
 31
-20.49999999999999
  0
LINE
  5
8C
330
61
100
AcDbEntity
  8
Livello 01
100
AcDbLine
 10
-0.0000000000000018
 20
0.0
 30
20.5
 11
-0.0000000000000018
 21
0.0
 31
21.19999999999999
  0
LINE
  5
8D
330
61
100
AcDbEntity
  8
Livello 01
100
AcDbLine
 10
-21.2
 20
0.0
 30
0.0000000000000018
 11
-20.5
 21
0.0
 31
0.0000000000000018
  0
LINE
  5
8E
330
61
100
AcDbEntity
  8
Livello 01
100
AcDbLine
 10
20.5
 20
0.0
 30
0.0000000000000018
 11
21.20000000000001
 21
0.0
 31
0.0000000000000018
  0
CIRCLE
  5
8F
330
61
100
AcDbEntity
  8
Livello 01
100
AcDbCircle
 10
0.0
 20
0.0000000000000073
 30
5.999999999999999
 40
19.188
210
0.0
220
-1.0
230
0.0
  0
LINE
  5
90
330
61
100
AcDbEntity
  8
Livello 01
100
AcDbLine
 10
-19.188
 20
-3.0
 30
0.0000000000000073
 11
-19.188
 21
-9.0
 31
0.0000000000000073
  0
LINE
  5
91
330
61
100
AcDbEntity
  8
Livello 01
100
AcDbLine
 10
0.0
 20
-3.0
 30
-19.18799999999999
 11
0.0
 21
-9.0
 31
-19.18799999999999
  0
LINE
  5
92
330
61
100
AcDbEntity
  8
Livello 01
100
AcDbLine
 10
19.188
 20
-3.0
 30
0.0000000000000073
 11
19.188
 21
-9.0
 31
0.0000000000000073
  0
CIRCLE
  5
93
330
61
100
AcDbEntity
  8
Livello 01
100
AcDbCircle
 10
0.0
 20
0.0
 30
22.55648089818858
 40
19.0
210
0.0
220
-1.0
230
0.0
  0
LINE
  5
94
330
61
100
AcDbEntity
  8
Livello 01
100
AcDbLine
 10
0.0
 20
-10.1129617963772
 30
-19.0
 11
0.0
 21
-34.99999999999999
 31
-19.0
  0
LINE
  5
95
330
61
100
AcDbEntity
  8
Livello 01
100
AcDbLine
 10
19.0
 20
-10.1129617963772
 30
0.0
 11
19.0
 21
-34.99999999999999
 31
0.0
  0
LINE
  5
96
330
61
100
AcDbEntity
  8
Livello 01
100
AcDbLine
 10
0.0
 20
-10.1129617963772
 30
19.0
 11
0.0
 21
-34.99999999999999
 31
19.0
  0
CIRCLE
  5
97
330
61
100
AcDbEntity
  8
Livello 01
100
AcDbCircle
 10
0.0
 20
0.0
 30
32.49999999999999
 40
19.75
210
0.0
220
-1.0
230
0.0
  0
LINE
  5
98
330
61
100
AcDbEntity
  8
Livello 01
100
AcDbLine
 10
-19.75
 20
-30.0
 30
0.0
 11
-19.75
 21
-35.0
 31
0.0
  0
LINE
  5
99
330
61
100
AcDbEntity
  8
Livello 01
100
AcDbLine
 10
0.0
 20
-30.0
 30
-19.75
 11
0.0
 21
-35.0
 31
-19.75
  0
LINE
  5
9A
330
61
100
AcDbEntity
  8
Livello 01
100
AcDbLine
 10
19.75
 20
-30.0
 30
0.0
 11
19.75
 21
-35.0
 31
0.0
  0
LINE
  5
9B
330
61
100
AcDbEntity
  8
Livello 01
100
AcDbLine
 10
-0.0000000000000018
 20
-30.0
 30
21.2
 11
-0.0000000000000018
 21
-30.0
 31
19.75
  0
LINE
  5
9C
330
61
100
AcDbEntity
  8
Livello 01
100
AcDbLine
 10
-0.0000000000000018
 20
-30.0
 30
-19.75
 11
-0.0000000000000018
 21
-30.0
 31
-21.2
  0
LINE
  5
9D
330
61
100
AcDbEntity
  8
Livello 01
100
AcDbLine
 10
-21.2
 20
-30.0
 30
0.0000000000000018
 11
-19.75
 21
-30.0
 31
0.0000000000000018
  0
LINE
  5
9E
330
61
100
AcDbEntity
  8
Livello 01
100
AcDbLine
 10
19.75
 20
-30.0
 30
0.0000000000000018
 11
21.2
 21
-30.0
 31
0.0000000000000018
  0
LINE
  5
9F
330
61
100
AcDbEntity
  8
Livello 01
100
AcDbLine
 10
0.0
 20
-2.5
 30
20.50000000000001
 11
0.0
 21
-2.5
 31
19.68800000000001
  0
LINE
  5
A0
330
61
100
AcDbEntity
  8
Livello 01
100
AcDbLine
 10
0.0
 20
-2.5
 30
-19.68799999999999
 11
0.0
 21
-2.5
 31
-20.5
  0
LINE
  5
A1
330
61
100
AcDbEntity
  8
Livello 01
100
AcDbLine
 10
-20.5
 20
-2.5
 30
0.0000000000000073
 11
-19.688
 21
-2.5
 31
0.0000000000000073
  0
LINE
  5
A2
330
61
100
AcDbEntity
  8
Livello 01
100
AcDbLine
 10
19.688
 20
-2.5
 30
0.0000000000000073
 11
20.5
 21
-2.5
 31
0.0000000000000073
  0
CIRCLE
  5
A3
330
61
100
AcDbEntity
  8
Livello 01
100
AcDbCircle
 10
0.0
 20
0.0000000000000073
 30
-1.25
 40
20.5
210
0.0
220
1.0
230
0.0
  0
LINE
  5
A4
330
61
100
AcDbEntity
  8
Livello 01
100
AcDbLine
 10
0.0
 20
-2.5
 30
20.50000000000001
 11
0.0
 21
0.0000000000000002
 31
20.50000000000001
  0
LINE
  5
A5
330
61
100
AcDbEntity
  8
Livello 01
100
AcDbLine
 10
20.5
 20
-2.5
 30
0.0000000000000073
 11
20.5
 21
0.0000000000000002
 31
0.0000000000000073
  0
LINE
  5
A6
330
61
100
AcDbEntity
  8
Livello 01
100
AcDbLine
 10
0.0
 20
-2.5
 30
-20.49999999999999
 11
0.0
 21
0.0000000000000002
 31
-20.49999999999999
  0
LINE
  5
A7
330
61
100
AcDbEntity
  8
Livello 01
100
AcDbLine
 10
19.188
 20
-2.999999999999996
 30
0.0000000000000073
 11
19.68800000000001
 21
-2.499999999999993
 31
0.0000000000000073
  0
LINE
  5
A8
330
61
100
AcDbEntity
  8
Livello 01
100
AcDbLine
 10
0.0
 20
-2.999999999999996
 30
-19.188
 11
0.0
 21
-2.499999999999993
 31
-19.688
  0
LINE
  5
A9
330
61
100
AcDbEntity
  8
Livello 01
100
AcDbLine
 10
-19.188
 20
-2.999999999999996
 30
0.0000000000000073
 11
-19.68800000000001
 21
-2.499999999999993
 31
0.0000000000000073
  0
ENDBLK
  5
AB
330
61
100
AcDbEntity
  8
0
100
AcDbBlockEnd
  0
BLOCK
  5
F0
330
AD
100
AcDbEntity
  8
0
100
AcDbBlockBegin
  2
10BO11360YY
 70
     0
 10
0.0
 20
0.0
 30
0.0
  3
10BO11360YY
  1

  0
CIRCLE
  5
AE
330
AD
100
AcDbEntity
  8
Livello 01
 62
     9
420
 11584734
100
AcDbCircle
 10
-49.9999999999999
 20
0.0
 30
3.1
 40
21.45
  0
ARC
  5
AF
330
AD
100
AcDbEntity
  8
Livello 01
 62
     9
420
 11584734
100
AcDbCircle
 10
49.9999999999999
 20
0.0
 30
-4.0
 40
21.45
210
0.0
220
0.0
230
-1.0
100
AcDbArc
 50
0.000000000000014
 51
180.0
  0
LINE
  5
B0
330
AD
100
AcDbEntity
  8
Livello 01
 62
     9
420
 11584734
100
AcDbLine
 10
-71.4499999999999
 20
0.0
 30
4.0
 11
-71.4499999999999
 21
0.0
 31
3.1
  0
ARC
  5
B1
330
AD
100
AcDbEntity
  8
Livello 01
 62
     9
420
 11584734
100
AcDbCircle
 10
49.9999999999999
 20
0.0
 30
-4.0
 40
21.45
210
0.0
220
0.0
230
-1.0
100
AcDbArc
 50
180.0
 51
0.0
  0
CIRCLE
  5
B2
330
AD
100
AcDbEntity
  8
Livello 01
 62
     9
420
 11584734
100
AcDbCircle
 10
49.9999999999999
 20
0.0
 30
-0.9
 40
21.45
210
0.0
220
0.0
230
-1.0
  0
CIRCLE
  5
B3
330
AD
100
AcDbEntity
  8
Livello 01
 62
     9
420
 11584734
100
AcDbCircle
 10
49.9999999999999
 20
0.0
 30
0.0
 40
21.45
210
0.0
220
0.0
230
-1.0
  0
LINE
  5
B4
330
AD
100
AcDbEntity
  8
Livello 01
 62
     9
420
 11584734
100
AcDbLine
 10
-28.5499999999999
 20
0.0
 30
0.9000000000000001
 11
-28.5499999999999
 21
0.0
 31
-0.0000000000000001
  0
CIRCLE
  5
B5
330
AD
100
AcDbEntity
  8
Livello 01
 62
     9
420
 11584734
100
AcDbCircle
 10
-49.9999999999999
 20
0.0
 30
1.25
 40
22.55
  0
LINE
  5
B6
330
AD
100
AcDbEntity
  8
Livello 01
 62
     9
420
 11584734
100
AcDbLine
 10
-27.4499999999999
 20
0.0
 30
1.25
 11
-27.4499999999999
 21
0.0
 31
2.749999999999999
  0
CIRCLE
  5
B7
330
AD
100
AcDbEntity
  8
Livello 01
 62
     9
420
 11584734
100
AcDbCircle
 10
49.9999999999999
 20
0.0
 30
-1.0
 40
21.55
210
0.0
220
0.0
230
-1.0
  0
ARC
  5
B8
330
AD
100
AcDbEntity
  8
Livello 01
 62
     9
420
 11584734
100
AcDbCircle
 10
-28.4499999999999
 20
0.9
 30
0.0
 40
0.1
210
0.0
220
-1.0
230
0.0
100
AcDbArc
 50
90.0
 51
180.0
  0
CIRCLE
  5
B9
330
AD
100
AcDbEntity
  8
Livello 01
 62
     9
420
 11584734
100
AcDbCircle
 10
-49.9999999999999
 20
0.0
 30
3.0
 40
21.55
  0
ARC
  5
BA
330
AD
100
AcDbEntity
  8
Livello 01
 62
     9
420
 11584734
100
AcDbCircle
 10
-71.5499999999999
 20
3.1
 30
0.0
 40
0.1
210
0.0
220
-1.0
230
0.0
100
AcDbArc
 50
270.0
 51
0.0
  0
CIRCLE
  5
BB
330
AD
100
AcDbEntity
  8
Livello 01
 62
     9
420
 11584734
100
AcDbCircle
 10
-49.9999999999999
 20
0.0
 30
1.0
 40
22.3
  0
ARC
  5
BC
330
AD
100
AcDbEntity
  8
Livello 01
 62
     9
420
 11584734
100
AcDbCircle
 10
-27.6999999999999
 20
1.25
 30
0.0
 40
0.25
210
0.0
220
-1.0
230
0.0
100
AcDbArc
 50
270.0
 51
0.0
  0
ARC
  5
BD
330
AD
100
AcDbEntity
  8
Livello 01
 62
     9
420
 11584734
100
AcDbCircle
 10
49.9999999999999
 20
0.0
 30
-2.75
 40
22.55
210
0.0
220
0.0
230
-1.0
100
AcDbArc
 50
0.0
 51
180.0
  0
CIRCLE
  5
BE
330
AD
100
AcDbEntity
  8
Livello 01
 62
     9
420
 11584734
100
AcDbCircle
 10
49.9999999999999
 20
0.0
 30
-3.0
 40
22.3
210
0.0
220
0.0
230
-1.0
  0
ARC
  5
BF
330
AD
100
AcDbEntity
  8
Livello 01
 62
     9
420
 11584734
100
AcDbCircle
 10
-72.2999999999999
 20
2.75
 30
0.0
 40
0.25
210
0.0
220
-1.0
230
0.0
100
AcDbArc
 50
90.0
 51
180.0
  0
ARC
  5
C0
330
AD
100
AcDbEntity
  8
Livello 01
 62
     9
420
 11584734
100
AcDbCircle
 10
49.9999999999999
 20
0.0
 30
-2.75
 40
22.55
210
0.0
220
0.0
230
-1.0
100
AcDbArc
 50
180.0
 51
0.0
  0
CIRCLE
  5
C1
330
AD
100
AcDbEntity
  8
Livello 01
 62
     9
420
 11584734
100
AcDbCircle
 10
-49.9999999999999
 20
0.0
 30
4.0
 40
32.5
  0
CIRCLE
  5
C2
330
AD
100
AcDbEntity
  8
Livello 01
 62
     9
420
 11584734
100
AcDbCircle
 10
-49.9999999999999
 20
0.0
 30
0.0
 40
32.5
  0
LINE
  5
C3
330
AD
100
AcDbEntity
  8
Livello 01
 62
     9
420
 11584734
100
AcDbLine
 10
-17.4999999999999
 20
0.0
 30
4.0
 11
-17.4999999999999
 21
0.0
 31
0.0000000000000009
  0
LINE
  5
C4
330
AD
100
AcDbEntity
  8
Livello 01
 62
     9
420
 11584734
100
AcDbLine
 10
-82.4999999999999
 20
0.0
 30
4.0
 11
-71.4499999999999
 21
0.0
 31
4.0
  0
LINE
  5
C5
330
AD
100
AcDbEntity
  8
Livello 01
 62
     9
420
 11584734
100
AcDbLine
 10
-28.5499999999999
 20
0.0
 30
4.0
 11
-17.4999999999999
 21
0.0
 31
4.0
  0
LINE
  5
C6
330
AD
100
AcDbEntity
  8
Livello 01
 62
     9
420
 11584734
100
AcDbLine
 10
-49.9999999999999
 20
-32.5
 30
4.0
 11
-49.9999999999999
 21
-21.45
 31
4.0
  0
LINE
  5
C7
330
AD
100
AcDbEntity
  8
Livello 01
 62
     9
420
 11584734
100
AcDbLine
 10
-49.9999999999999
 20
21.45000000000001
 30
4.0
 11
-49.9999999999999
 21
32.49999999999999
 31
4.0
  0
LINE
  5
C8
330
AD
100
AcDbEntity
  8
Livello 01
 62
     9
420
 11584734
100
AcDbLine
 10
-82.4999999999999
 20
0.0
 30
0.0
 11
-71.4499999999999
 21
0.0
 31
0.0
  0
LINE
  5
C9
330
AD
100
AcDbEntity
  8
Livello 01
 62
     9
420
 11584734
100
AcDbLine
 10
-28.5499999999999
 20
0.0
 30
0.0
 11
-17.4999999999999
 21
0.0
 31
0.0
  0
LINE
  5
CA
330
AD
100
AcDbEntity
  8
Livello 01
 62
     9
420
 11584734
100
AcDbLine
 10
-49.9999999999999
 20
-32.5
 30
0.0
 11
-49.9999999999999
 21
-21.45
 31
0.0
  0
LINE
  5
CB
330
AD
100
AcDbEntity
  8
Livello 01
 62
     9
420
 11584734
100
AcDbLine
 10
-49.9999999999999
 20
21.45
 30
0.0
 11
-49.9999999999999
 21
32.50000000000001
 31
0.0
  0
CIRCLE
  5
CC
330
AD
100
AcDbEntity
  8
Livello 01
 62
     9
420
 11584734
100
AcDbCircle
 10
49.9999999999999
 20
0.0
 30
-3.55
 40
21.45
210
0.0
220
0.0
230
-1.0
  0
LINE
  5
CD
330
AD
100
AcDbEntity
  8
Livello 01
 62
     9
420
 11584734
100
AcDbLine
 10
-49.9999999999999
 20
21.45
 30
4.0
 11
-49.9999999999999
 21
21.45
 31
3.1
  0
LINE
  5
CE
330
AD
100
AcDbEntity
  8
Livello 01
 62
     9
420
 11584734
100
AcDbLine
 10
-28.5499999999999
 20
0.0
 30
4.0
 11
-28.5499999999999
 21
0.0
 31
3.1
  0
LINE
  5
CF
330
AD
100
AcDbEntity
  8
Livello 01
 62
     9
420
 11584734
100
AcDbLine
 10
-49.9999999999999
 20
-21.45
 30
4.0
 11
-49.9999999999999
 21
-21.45
 31
3.1
  0
CIRCLE
  5
D0
330
AD
100
AcDbEntity
  8
Livello 01
 62
     9
420
 11584734
100
AcDbCircle
 10
49.9999999999999
 20
0.0
 30
-0.45
 40
21.45
210
0.0
220
0.0
230
-1.0
  0
LINE
  5
D1
330
AD
100
AcDbEntity
  8
Livello 01
 62
     9
420
 11584734
100
AcDbLine
 10
-49.9999999999999
 20
-21.45
 30
0.9000000000000001
 11
-49.9999999999999
 21
-21.45
 31
-0.0000000000000002
  0
LINE
  5
D2
330
AD
100
AcDbEntity
  8
Livello 01
 62
     9
420
 11584734
100
AcDbLine
 10
-71.4499999999999
 20
0.0
 30
0.9000000000000001
 11
-71.4499999999999
 21
0.0
 31
-0.0000000000000002
  0
LINE
  5
D3
330
AD
100
AcDbEntity
  8
Livello 01
 62
     9
420
 11584734
100
AcDbLine
 10
-49.9999999999999
 20
21.45
 30
0.9000000000000001
 11
-49.9999999999999
 21
21.45
 31
-0.0000000000000002
  0
CIRCLE
  5
D4
330
AD
100
AcDbEntity
  8
Livello 01
 62
     9
420
 11584734
100
AcDbCircle
 10
-49.9999999999999
 20
0.0
 30
2.0
 40
22.55
  0
LINE
  5
D5
330
AD
100
AcDbEntity
  8
Livello 01
 62
     9
420
 11584734
100
AcDbLine
 10
-49.9999999999999
 20
22.55
 30
1.25
 11
-49.9999999999999
 21
22.55
 31
2.75
  0
LINE
  5
D6
330
AD
100
AcDbEntity
  8
Livello 01
 62
     9
420
 11584734
100
AcDbLine
 10
-72.5499999999999
 20
0.0
 30
1.25
 11
-72.5499999999999
 21
0.0
 31
2.75
  0
LINE
  5
D7
330
AD
100
AcDbEntity
  8
Livello 01
 62
     9
420
 11584734
100
AcDbLine
 10
-49.9999999999999
 20
-22.55
 30
1.25
 11
-49.9999999999999
 21
-22.55
 31
2.75
  0
LINE
  5
D8
330
AD
100
AcDbEntity
  8
Livello 01
 62
     9
420
 11584734
100
AcDbLine
 10
-27.6999999999999
 20
-0.0000000000000036
 30
3.0
 11
-28.4499999999999
 21
-0.0000000000000036
 31
3.0
  0
LINE
  5
D9
330
AD
100
AcDbEntity
  8
Livello 01
 62
     9
420
 11584734
100
AcDbLine
 10
-71.54999999999991
 20
-0.0000000000000036
 30
3.0
 11
-72.29999999999988
 21
-0.0000000000000036
 31
3.0
  0
LINE
  5
DA
330
AD
100
AcDbEntity
  8
Livello 01
 62
     9
420
 11584734
100
AcDbLine
 10
-49.99999999999989
 20
-22.3
 30
3.0
 11
-49.99999999999989
 21
-21.55
 31
3.0
  0
LINE
  5
DB
330
AD
100
AcDbEntity
  8
Livello 01
 62
     9
420
 11584734
100
AcDbLine
 10
-49.99999999999989
 20
21.55
 30
3.0
 11
-49.99999999999989
 21
22.29999999999999
 31
3.0
  0
LINE
  5
DC
330
AD
100
AcDbEntity
  8
Livello 01
 62
     9
420
 11584734
100
AcDbLine
 10
-72.2999999999999
 20
-0.0000000000000036
 30
1.0
 11
-71.5499999999999
 21
-0.0000000000000036
 31
1.0
  0
LINE
  5
DD
330
AD
100
AcDbEntity
  8
Livello 01
 62
     9
420
 11584734
100
AcDbLine
 10
-28.4499999999999
 20
-0.0000000000000036
 30
1.0
 11
-27.6999999999999
 21
-0.0000000000000036
 31
1.0
  0
LINE
  5
DE
330
AD
100
AcDbEntity
  8
Livello 01
 62
     9
420
 11584734
100
AcDbLine
 10
-49.9999999999999
 20
-22.3
 30
1.0
 11
-49.9999999999999
 21
-21.55
 31
1.0
  0
LINE
  5
DF
330
AD
100
AcDbEntity
  8
Livello 01
 62
     9
420
 11584734
100
AcDbLine
 10
-49.9999999999999
 20
21.55
 30
1.0
 11
-49.9999999999999
 21
22.3
 31
1.0
  0
ARC
  5
E0
330
AD
100
AcDbEntity
  8
Livello 01
 62
     9
420
 11584734
100
AcDbCircle
 10
21.55
 20
0.9
 30
-49.9999999999999
 40
0.1
210
1.0
220
0.0
230
0.0
100
AcDbArc
 50
90.0
 51
180.0
  0
ARC
  5
E1
330
AD
100
AcDbEntity
  8
Livello 01
 62
     9
420
 11584734
100
AcDbCircle
 10
71.5499999999999
 20
0.9
 30
0.0
 40
0.1
210
0.0
220
1.0
230
0.0
100
AcDbArc
 50
90.0
 51
180.0
  0
ARC
  5
E2
330
AD
100
AcDbEntity
  8
Livello 01
 62
     9
420
 11584734
100
AcDbCircle
 10
21.55
 20
0.9
 30
49.9999999999999
 40
0.1
210
-1.0
220
0.0
230
0.0
100
AcDbArc
 50
90.0
 51
180.0
  0
ARC
  5
E3
330
AD
100
AcDbEntity
  8
Livello 01
 62
     9
420
 11584734
100
AcDbCircle
 10
-21.55
 20
3.1
 30
49.9999999999999
 40
0.1
210
-1.0
220
0.0
230
0.0
100
AcDbArc
 50
270.0
 51
0.0
  0
ARC
  5
E4
330
AD
100
AcDbEntity
  8
Livello 01
 62
     9
420
 11584734
100
AcDbCircle
 10
28.4499999999999
 20
3.1
 30
0.0
 40
0.1
210
0.0
220
1.0
230
0.0
100
AcDbArc
 50
270.0
 51
0.0
  0
ARC
  5
E5
330
AD
100
AcDbEntity
  8
Livello 01
 62
     9
420
 11584734
100
AcDbCircle
 10
-21.55
 20
3.1
 30
-49.9999999999999
 40
0.1
210
1.0
220
0.0
230
0.0
100
AcDbArc
 50
270.0
 51
0.0
  0
ARC
  5
E6
330
AD
100
AcDbEntity
  8
Livello 01
 62
     9
420
 11584734
100
AcDbCircle
 10
22.3
 20
1.25
 30
-49.9999999999999
 40
0.25
210
1.0
220
0.0
230
0.0
100
AcDbArc
 50
270.0
 51
0.0
  0
ARC
  5
E7
330
AD
100
AcDbEntity
  8
Livello 01
 62
     9
420
 11584734
100
AcDbCircle
 10
72.2999999999999
 20
1.25
 30
0.0
 40
0.25
210
0.0
220
1.0
230
0.0
100
AcDbArc
 50
270.0
 51
0.0
  0
ARC
  5
E8
330
AD
100
AcDbEntity
  8
Livello 01
 62
     9
420
 11584734
100
AcDbCircle
 10
22.3
 20
1.25
 30
49.9999999999999
 40
0.25
210
-1.0
220
0.0
230
0.0
100
AcDbArc
 50
270.0
 51
0.0
  0
ARC
  5
E9
330
AD
100
AcDbEntity
  8
Livello 01
 62
     9
420
 11584734
100
AcDbCircle
 10
-22.3
 20
2.75
 30
49.9999999999999
 40
0.25
210
-1.0
220
0.0
230
0.0
100
AcDbArc
 50
90.0
 51
180.0
  0
ARC
  5
EA
330
AD
100
AcDbEntity
  8
Livello 01
 62
     9
420
 11584734
100
AcDbCircle
 10
27.6999999999999
 20
2.75
 30
0.0
 40
0.25
210
0.0
220
1.0
230
0.0
100
AcDbArc
 50
90.0
 51
180.0
  0
ARC
  5
EB
330
AD
100
AcDbEntity
  8
Livello 01
 62
     9
420
 11584734
100
AcDbCircle
 10
-22.3
 20
2.75
 30
-49.9999999999999
 40
0.25
210
1.0
220
0.0
230
0.0
100
AcDbArc
 50
90.0
 51
180.0
  0
CIRCLE
  5
EC
330
AD
100
AcDbEntity
  8
Livello 01
 62
     9
420
 11584734
100
AcDbCircle
 10
49.9999999999999
 20
0.0
 30
-2.0
 40
32.5
210
0.0
220
0.0
230
-1.0
  0
LINE
  5
ED
330
AD
100
AcDbEntity
  8
Livello 01
 62
     9
420
 11584734
100
AcDbLine
 10
-49.9999999999999
 20
-32.5
 30
3.999999999999999
 11
-49.9999999999999
 21
-32.5
 31
0.0000000000000011
  0
LINE
  5
EE
330
AD
100
AcDbEntity
  8
Livello 01
 62
     9
420
 11584734
100
AcDbLine
 10
-82.4999999999999
 20
0.0
 30
3.999999999999999
 11
-82.4999999999999
 21
0.0
 31
0.0000000000000011
  0
LINE
  5
EF
330
AD
100
AcDbEntity
  8
Livello 01
 62
     9
420
 11584734
100
AcDbLine
 10
-49.9999999999999
 20
32.5
 30
3.999999999999999
 11
-49.9999999999999
 21
32.5
 31
0.0000000000000011
  0
ENDBLK
  5
F1
330
AD
100
AcDbEntity
  8
0
100
AcDbBlockEnd
  0
BLOCK
  5
FC
330
F3
100
AcDbEntity
  8
0
100
AcDbBlockBegin
  2
10OR19860YY
 70
     0
 10
0.0
 20
0.0
 30
0.0
  3
10OR19860YY
  1

  0
CIRCLE
  5
F4
330
F3
100
AcDbEntity
  8
Livello 01
 62
   250
420
  3355443
100
AcDbCircle
 10
0.0
 20
0.0
 30
-0.75
 40
22.5
210
0.0
220
0.0
230
-1.0
  0
CIRCLE
  5
F5
330
F3
100
AcDbEntity
  8
Livello 01
 62
   250
420
  3355443
100
AcDbCircle
 10
-21.75
 20
0.75
 30
0.0
 40
0.75
210
0.0
220
-1.0
230
0.0
  0
CIRCLE
  5
F6
330
F3
100
AcDbEntity
  8
Livello 01
 62
   250
420
  3355443
100
AcDbCircle
 10
0.0
 20
0.0
 30
0.0
 40
21.75
210
0.0
220
0.0
230
-1.0
  0
CIRCLE
  5
F7
330
F3
100
AcDbEntity
  8
Livello 01
 62
   250
420
  3355443
100
AcDbCircle
 10
0.0
 20
0.0
 30
-0.75
 40
21.0
210
0.0
220
0.0
230
-1.0
  0
CIRCLE
  5
F8
330
F3
100
AcDbEntity
  8
Livello 01
 62
   250
420
  3355443
100
AcDbCircle
 10
0.0
 20
0.0
 30
-1.5
 40
21.75
210
0.0
220
0.0
230
-1.0
  0
CIRCLE
  5
F9
330
F3
100
AcDbEntity
  8
Livello 01
 62
   250
420
  3355443
100
AcDbCircle
 10
-21.75
 20
0.75
 30
0.0
 40
0.75
210
-1.0
220
0.0
230
0.0
  0
CIRCLE
  5
FA
330
F3
100
AcDbEntity
  8
Livello 01
 62
   250
420
  3355443
100
AcDbCircle
 10
-21.75
 20
0.75
 30
0.0
 40
0.75
210
0.0
220
1.0
230
0.0
  0
CIRCLE
  5
FB
330
F3
100
AcDbEntity
  8
Livello 01
 62
   250
420
  3355443
100
AcDbCircle
 10
-21.75
 20
0.75
 30
0.0
 40
0.75
210
1.0
220
0.0
230
0.0
  0
ENDBLK
  5
FD
330
F3
100
AcDbEntity
  8
0
100
AcDbBlockEnd
  0
BLOCK
  5
139
330
FF
100
AcDbEntity
  8
0
100
AcDbBlockBegin
  2
10VI23060YY
 70
     0
 10
0.0
 20
0.0
 30
0.0
  3
10VI23060YY
  1

  0
SPLINE
  5
100
330
FF
100
AcDbEntity
  8
Livello 01
100
AcDbSpline
210
0.0
220
0.0
230
1.0
 70
    24
 71
     2
 72
     6
 73
     3
 74
     0
 42
0.0000000001
 43
0.0000000001
 40
-0.866025403784438
 40
-0.866025403784438
 40
-0.866025403784438
 40
0.0
 40
0.0
 40
0.0
 10
-0.750000000000001
 20
0.433012701892219
 30
2.99999999999999
 10
-0.750000000000001
 20
0.0
 30
2.99999999999999
 10
-0.750000000000001
 20
-0.433012701892219
 30
2.99999999999999
  0
SPLINE
  5
101
330
FF
100
AcDbEntity
  8
Livello 01
100
AcDbSpline
210
0.0
220
0.0
230
1.0
 70
    24
 71
     2
 72
     6
 73
     3
 74
     0
 42
0.0000000001
 43
0.0000000001
 40
-0.866025403784438
 40
-0.866025403784438
 40
-0.866025403784438
 40
0.0
 40
0.0
 40
0.0
 10
0.750000000000001
 20
-0.433012701892219
 30
2.99999999999999
 10
0.7500000000000004
 20
0.0
 30
2.99999999999999
 10
0.75
 20
0.433012701892219
 30
2.99999999999999
  0
CIRCLE
  5
102
330
FF
100
AcDbEntity
  8
Livello 01
100
AcDbCircle
 10
0.0
 20
0.0
 30
-1.25000000000001
 40
1.50000000000001
210
0.0
220
0.0
230
-1.0
  0
CIRCLE
  5
103
330
FF
100
AcDbEntity
  8
Livello 01
100
AcDbCircle
 10
0.0
 20
0.0
 30
0.0
 40
0.25
  0
LINE
  5
104
330
FF
100
AcDbEntity
  8
Livello 01
100
AcDbLine
 10
0.2500000000000001
 20
0.0
 30
0.0
 11
1.500000000000009
 21
0.0
 31
1.25000000000001
  0
LINE
  5
105
330
FF
100
AcDbEntity
  8
Livello 01
100
AcDbLine
 10
1.50000000000001
 20
0.0
 30
1.25000000000001
 11
1.50000000000001
 21
0.0
 31
2.74999999999998
  0
SPLINE
  5
106
330
FF
100
AcDbEntity
  8
Livello 01
100
AcDbSpline
210
0.0
220
0.0
230
1.0
 70
    24
 71
     2
 72
     6
 73
     3
 74
     0
 42
0.0000000001
 43
0.0000000001
 40
0.0
 40
0.0
 40
0.0
 40
0.8660254037844399
 40
0.8660254037844399
 40
0.8660254037844399
 10
-0.750000000000001
 20
-0.433012701892219
 30
2.99999999999999
 10
-0.3750000000000005
 20
-0.649519052838329
 30
2.99999999999999
 10
0.0
 20
-0.866025403784439
 30
2.99999999999999
  0
SPLINE
  5
107
330
FF
100
AcDbEntity
  8
Livello 01
100
AcDbSpline
210
0.0
220
0.0
230
1.0
 70
    24
 71
     2
 72
     6
 73
     3
 74
     0
 42
0.0000000001
 43
0.0000000001
 40
0.0
 40
0.0
 40
0.0
 40
1.5
 40
1.5
 40
1.5
 10
0.0
 20
-0.866025403784439
 30
2.99999999999999
 10
0.0
 20
-0.866025403784439
 30
2.24999999999999
 10
0.0
 20
-0.866025403784439
 30
1.49999999999999
  0
SPLINE
  5
108
330
FF
100
AcDbEntity
  8
Livello 01
100
AcDbSpline
210
0.0
220
0.0
230
1.0
 70
    24
 71
     2
 72
     6
 73
     3
 74
     0
 42
0.0000000001
 43
0.0000000001
 40
0.0
 40
0.0
 40
0.0
 40
0.8660254037844399
 40
0.8660254037844399
 40
0.8660254037844399
 10
0.0
 20
-0.866025403784439
 30
1.49999999999999
 10
-0.3750000000000005
 20
-0.649519052838329
 30
1.49999999999999
 10
-0.750000000000001
 20
-0.433012701892219
 30
1.49999999999999
  0
SPLINE
  5
109
330
FF
100
AcDbEntity
  8
Livello 01
100
AcDbSpline
210
0.0
220
0.0
230
1.0
 70
    24
 71
     2
 72
     6
 73
     3
 74
     0
 42
0.0000000001
 43
0.0000000001
 40
0.0
 40
0.0
 40
0.0
 40
1.5
 40
1.5
 40
1.5
 10
-0.750000000000001
 20
-0.433012701892219
 30
1.49999999999999
 10
-0.750000000000001
 20
-0.433012701892219
 30
2.24999999999999
 10
-0.750000000000001
 20
-0.433012701892219
 30
2.99999999999999
  0
SPLINE
  5
10A
330
FF
100
AcDbEntity
  8
Livello 01
100
AcDbSpline
210
0.0
220
0.0
230
1.0
 70
    24
 71
     2
 72
     6
 73
     3
 74
     0
 42
0.0000000001
 43
0.0000000001
 40
0.0
 40
0.0
 40
0.0
 40
0.866025403784438
 40
0.866025403784438
 40
0.866025403784438
 10
-0.750000000000001
 20
-0.433012701892219
 30
1.49999999999999
 10
-0.750000000000001
 20
0.0
 30
1.49999999999999
 10
-0.750000000000001
 20
0.433012701892219
 30
1.49999999999999
  0
SPLINE
  5
10B
330
FF
100
AcDbEntity
  8
Livello 01
100
AcDbSpline
210
0.0
220
0.0
230
1.0
 70
    24
 71
     2
 72
     6
 73
     3
 74
     0
 42
0.0000000001
 43
0.0000000001
 40
0.0
 40
0.0
 40
0.0
 40
1.5
 40
1.5
 40
1.5
 10
-0.750000000000001
 20
0.433012701892219
 30
1.49999999999999
 10
-0.750000000000001
 20
0.433012701892219
 30
2.24999999999999
 10
-0.750000000000001
 20
0.433012701892219
 30
2.99999999999999
  0
SPLINE
  5
10C
330
FF
100
AcDbEntity
  8
Livello 01
100
AcDbSpline
210
0.0
220
0.0
230
1.0
 70
    24
 71
     2
 72
     6
 73
     3
 74
     0
 42
0.0000000001
 43
0.0000000001
 40
0.0
 40
0.0
 40
0.0
 40
0.8660254037844399
 40
0.8660254037844399
 40
0.8660254037844399
 10
0.0
 20
0.866025403784439
 30
2.99999999999999
 10
-0.3750000000000005
 20
0.649519052838329
 30
2.99999999999999
 10
-0.750000000000001
 20
0.433012701892219
 30
2.99999999999999
  0
SPLINE
  5
10D
330
FF
100
AcDbEntity
  8
Livello 01
100
AcDbSpline
210
0.0
220
0.0
230
1.0
 70
    24
 71
     2
 72
     6
 73
     3
 74
     0
 42
0.0000000001
 43
0.0000000001
 40
0.0
 40
0.0
 40
0.0
 40
0.8660254037844399
 40
0.8660254037844399
 40
0.8660254037844399
 10
-0.750000000000001
 20
0.433012701892219
 30
1.49999999999999
 10
-0.3750000000000005
 20
0.649519052838329
 30
1.49999999999999
 10
0.0
 20
0.866025403784439
 30
1.49999999999999
  0
SPLINE
  5
10E
330
FF
100
AcDbEntity
  8
Livello 01
100
AcDbSpline
210
0.0
220
0.0
230
1.0
 70
    24
 71
     2
 72
     6
 73
     3
 74
     0
 42
0.0000000001
 43
0.0000000001
 40
0.0
 40
0.0
 40
0.0
 40
1.5
 40
1.5
 40
1.5
 10
0.0
 20
0.866025403784439
 30
1.49999999999999
 10
0.0
 20
0.866025403784439
 30
2.24999999999999
 10
0.0
 20
0.866025403784439
 30
2.99999999999999
  0
SPLINE
  5
10F
330
FF
100
AcDbEntity
  8
Livello 01
100
AcDbSpline
210
0.0
220
0.0
230
1.0
 70
    24
 71
     2
 72
     6
 73
     3
 74
     0
 42
0.0000000001
 43
0.0000000001
 40
0.0
 40
0.0
 40
0.0
 40
0.8660254037844389
 40
0.8660254037844389
 40
0.8660254037844389
 10
0.75
 20
0.433012701892219
 30
2.99999999999999
 10
0.375
 20
0.649519052838329
 30
2.99999999999999
 10
0.0
 20
0.866025403784439
 30
2.99999999999999
  0
SPLINE
  5
110
330
FF
100
AcDbEntity
  8
Livello 01
100
AcDbSpline
210
0.0
220
0.0
230
1.0
 70
    24
 71
     2
 72
     6
 73
     3
 74
     0
 42
0.0000000001
 43
0.0000000001
 40
0.0
 40
0.0
 40
0.0
 40
0.8660254037844389
 40
0.8660254037844389
 40
0.8660254037844389
 10
0.0
 20
0.866025403784439
 30
1.49999999999999
 10
0.375
 20
0.649519052838329
 30
1.49999999999999
 10
0.75
 20
0.433012701892219
 30
1.49999999999999
  0
SPLINE
  5
111
330
FF
100
AcDbEntity
  8
Livello 01
100
AcDbSpline
210
0.0
220
0.0
230
1.0
 70
    24
 71
     2
 72
     6
 73
     3
 74
     0
 42
0.0000000001
 43
0.0000000001
 40
0.0
 40
0.0
 40
0.0
 40
1.5
 40
1.5
 40
1.5
 10
0.75
 20
0.433012701892219
 30
1.49999999999999
 10
0.75
 20
0.433012701892219
 30
2.24999999999999
 10
0.75
 20
0.433012701892219
 30
2.99999999999999
  0
SPLINE
  5
112
330
FF
100
AcDbEntity
  8
Livello 01
100
AcDbSpline
210
0.0
220
0.0
230
1.0
 70
    24
 71
     2
 72
     6
 73
     3
 74
     0
 42
0.0000000001
 43
0.0000000001
 40
0.0
 40
0.0
 40
0.0
 40
0.866025403784438
 40
0.866025403784438
 40
0.866025403784438
 10
0.75
 20
0.433012701892219
 30
1.49999999999999
 10
0.7500000000000004
 20
0.0
 30
1.49999999999999
 10
0.750000000000001
 20
-0.433012701892219
 30
1.49999999999999
  0
SPLINE
  5
113
330
FF
100
AcDbEntity
  8
Livello 01
100
AcDbSpline
210
0.0
220
0.0
230
1.0
 70
    24
 71
     2
 72
     6
 73
     3
 74
     0
 42
0.0000000001
 43
0.0000000001
 40
0.0
 40
0.0
 40
0.0
 40
1.5
 40
1.5
 40
1.5
 10
0.750000000000001
 20
-0.433012701892219
 30
1.49999999999999
 10
0.750000000000001
 20
-0.433012701892219
 30
2.24999999999999
 10
0.750000000000001
 20
-0.433012701892219
 30
2.99999999999999
  0
SPLINE
  5
114
330
FF
100
AcDbEntity
  8
Livello 01
100
AcDbSpline
210
0.0
220
0.0
230
1.0
 70
    24
 71
     2
 72
     6
 73
     3
 74
     0
 42
0.0000000001
 43
0.0000000001
 40
0.0
 40
0.0
 40
0.0
 40
0.8660254037844399
 40
0.8660254037844399
 40
0.8660254037844399
 10
0.0
 20
-0.866025403784439
 30
2.99999999999999
 10
0.3750000000000005
 20
-0.649519052838329
 30
2.99999999999999
 10
0.750000000000001
 20
-0.433012701892219
 30
2.99999999999999
  0
SPLINE
  5
115
330
FF
100
AcDbEntity
  8
Livello 01
100
AcDbSpline
210
0.0
220
0.0
230
1.0
 70
    24
 71
     2
 72
     6
 73
     3
 74
     0
 42
0.0000000001
 43
0.0000000001
 40
0.0
 40
0.0
 40
0.0
 40
0.8660254037844399
 40
0.8660254037844399
 40
0.8660254037844399
 10
0.750000000000001
 20
-0.433012701892219
 30
1.49999999999999
 10
0.3750000000000005
 20
-0.649519052838329
 30
1.49999999999999
 10
0.0
 20
-0.866025403784439
 30
1.49999999999999
  0
ARC
  5
116
330
FF
100
AcDbEntity
  8
Livello 01
100
AcDbCircle
 10
0.0
 20
0.0
 30
2.74999999999998
 40
1.50000000000001
100
AcDbArc
 50
180.0
 51
0.000000000000007
  0
CIRCLE
  5
117
330
FF
100
AcDbEntity
  8
Livello 01
100
AcDbCircle
 10
0.0
 20
0.0
 30
-2.99999999999999
 40
1.25
210
0.0
220
0.0
230
-1.0
  0
LINE
  5
118
330
FF
100
AcDbEntity
  8
Livello 01
100
AcDbLine
 10
-1.25
 20
0.0
 30
2.99999999999999
 11
-1.50000000000001
 21
0.0
 31
2.74999999999998
  0
ARC
  5
119
330
FF
100
AcDbEntity
  8
Livello 01
100
AcDbCircle
 10
0.0
 20
0.0
 30
2.74999999999998
 40
1.50000000000001
100
AcDbArc
 50
0.000000000000007
 51
180.0
  0
LINE
  5
11A
330
FF
100
AcDbEntity
  8
Livello 01
100
AcDbLine
 10
1.25
 20
0.0
 30
2.99999999999999
 11
0.7500000000000004
 21
0.0
 31
2.99999999999999
  0
LINE
  5
11B
330
FF
100
AcDbEntity
  8
Livello 01
100
AcDbLine
 10
-0.7500000000000013
 20
0.0
 30
2.99999999999999
 11
-1.25
 21
0.0
 31
2.99999999999999
  0
LINE
  5
11C
330
FF
100
AcDbEntity
  8
Livello 01
100
AcDbLine
 10
-0.0000000000000002
 20
-1.25
 30
2.99999999999999
 11
-0.0000000000000002
 21
-0.866025403784439
 31
2.99999999999999
  0
LINE
  5
11D
330
FF
100
AcDbEntity
  8
Livello 01
100
AcDbLine
 10
-0.0000000000000002
 20
0.8660254037844388
 30
2.99999999999999
 11
-0.0000000000000002
 21
1.25
 31
2.99999999999999
  0
LINE
  5
11E
330
FF
100
AcDbEntity
  8
Livello 01
100
AcDbLine
 10
-0.2499999999999999
 20
0.0
 30
0.0
 11
0.2499999999999999
 21
0.0
 31
0.0
  0
LINE
  5
11F
330
FF
100
AcDbEntity
  8
Livello 01
100
AcDbLine
 10
0.0
 20
-0.2499999999999999
 30
0.0
 11
0.0
 21
0.2499999999999999
 31
0.0
  0
CIRCLE
  5
120
330
FF
100
AcDbEntity
  8
Livello 01
100
AcDbCircle
 10
0.0
 20
0.0
 30
0.6050000000000053
 40
0.855000000000005
  0
LINE
  5
121
330
FF
100
AcDbEntity
  8
Livello 01
100
AcDbLine
 10
0.0
 20
0.25
 30
-0.0000000000000001
 11
0.0
 21
1.500000000000009
 31
1.25000000000001
  0
LINE
  5
122
330
FF
100
AcDbEntity
  8
Livello 01
100
AcDbLine
 10
-0.25
 20
0.0
 30
-0.0000000000000001
 11
-1.500000000000009
 21
0.0
 31
1.25000000000001
  0
LINE
  5
123
330
FF
100
AcDbEntity
  8
Livello 01
100
AcDbLine
 10
0.0
 20
-0.25
 30
-0.0000000000000001
 11
0.0
 21
-1.500000000000009
 31
1.25000000000001
  0
CIRCLE
  5
124
330
FF
100
AcDbEntity
  8
Livello 01
100
AcDbCircle
 10
0.0
 20
0.0
 30
1.999999999999996
 40
1.50000000000001
  0
LINE
  5
125
330
FF
100
AcDbEntity
  8
Livello 01
100
AcDbLine
 10
0.0
 20
1.50000000000001
 30
1.25000000000001
 11
0.0
 21
1.50000000000001
 31
2.74999999999998
  0
LINE
  5
126
330
FF
100
AcDbEntity
  8
Livello 01
100
AcDbLine
 10
-1.50000000000001
 20
0.0
 30
1.25000000000001
 11
-1.50000000000001
 21
0.0
 31
2.74999999999998
  0
LINE
  5
127
330
FF
100
AcDbEntity
  8
Livello 01
100
AcDbLine
 10
0.0
 20
-1.50000000000001
 30
1.25000000000001
 11
0.0
 21
-1.50000000000001
 31
2.74999999999998
  0
LINE
  5
128
330
FF
100
AcDbEntity
  8
Livello 01
100
AcDbLine
 10
0.0
 20
-0.866025403784439
 30
2.24999999999999
 11
-0.7500000000000011
 21
-0.4330127018922193
 31
2.24999999999999
  0
LINE
  5
129
330
FF
100
AcDbEntity
  8
Livello 01
100
AcDbLine
 10
-0.3750000000000006
 20
-0.6495190528383292
 30
1.49999999999999
 11
-0.3750000000000006
 21
-0.6495190528383292
 31
2.999999999999989
  0
LINE
  5
12A
330
FF
100
AcDbEntity
  8
Livello 01
100
AcDbLine
 10
-0.750000000000001
 20
0.0
 30
2.999999999999989
 11
-0.750000000000001
 21
0.0
 31
1.49999999999999
  0
LINE
  5
12B
330
FF
100
AcDbEntity
  8
Livello 01
100
AcDbLine
 10
-0.750000000000001
 20
-0.433012701892219
 30
2.24999999999999
 11
-0.750000000000001
 21
0.4330127018922189
 31
2.24999999999999
  0
LINE
  5
12C
330
FF
100
AcDbEntity
  8
Livello 01
100
AcDbLine
 10
-0.7500000000000007
 20
0.4330127018922186
 30
2.24999999999999
 11
0.0000000000000004
 21
0.8660254037844383
 31
2.24999999999999
  0
LINE
  5
12D
330
FF
100
AcDbEntity
  8
Livello 01
100
AcDbLine
 10
-0.3750000000000002
 20
0.6495190528383286
 30
1.49999999999999
 11
-0.3750000000000002
 21
0.6495190528383286
 31
2.999999999999989
  0
LINE
  5
12E
330
FF
100
AcDbEntity
  8
Livello 01
100
AcDbLine
 10
0.0
 20
0.866025403784439
 30
2.24999999999999
 11
0.7500000000000004
 21
0.4330127018922197
 31
2.24999999999999
  0
LINE
  5
12F
330
FF
100
AcDbEntity
  8
Livello 01
100
AcDbLine
 10
0.3750000000000002
 20
0.6495190528383293
 30
1.49999999999999
 11
0.3750000000000002
 21
0.6495190528383293
 31
2.999999999999989
  0
LINE
  5
130
330
FF
100
AcDbEntity
  8
Livello 01
100
AcDbLine
 10
0.750000000000001
 20
0.0
 30
1.49999999999999
 11
0.750000000000001
 21
0.0
 31
2.999999999999989
  0
LINE
  5
131
330
FF
100
AcDbEntity
  8
Livello 01
100
AcDbLine
 10
0.750000000000001
 20
-0.433012701892219
 30
2.24999999999999
 11
0.750000000000001
 21
0.4330127018922189
 31
2.24999999999999
  0
LINE
  5
132
330
FF
100
AcDbEntity
  8
Livello 01
100
AcDbLine
 10
0.7500000000000007
 20
-0.4330127018922186
 30
2.24999999999999
 11
-0.0000000000000004
 21
-0.8660254037844383
 31
2.24999999999999
  0
LINE
  5
133
330
FF
100
AcDbEntity
  8
Livello 01
100
AcDbLine
 10
0.3750000000000002
 20
-0.6495190528383286
 30
1.49999999999999
 11
0.3750000000000002
 21
-0.6495190528383286
 31
2.999999999999989
  0
LINE
  5
134
330
FF
100
AcDbEntity
  8
Livello 01
100
AcDbLine
 10
0.7500000000000003
 20
0.0
 30
1.49999999999999
 11
-0.7500000000000011
 21
0.0
 31
1.49999999999999
  0
LINE
  5
135
330
FF
100
AcDbEntity
  8
Livello 01
100
AcDbLine
 10
0.0
 20
-0.866025403784439
 30
1.49999999999999
 11
0.0
 21
0.8660254037844388
 31
1.49999999999999
  0
LINE
  5
136
330
FF
100
AcDbEntity
  8
Livello 01
100
AcDbLine
 10
0.0
 20
1.25
 30
2.999999999999989
 11
0.0
 21
1.500000000000011
 31
2.74999999999998
  0
LINE
  5
137
330
FF
100
AcDbEntity
  8
Livello 01
100
AcDbLine
 10
1.25
 20
0.0
 30
2.999999999999989
 11
1.500000000000011
 21
0.0
 31
2.74999999999998
  0
LINE
  5
138
330
FF
100
AcDbEntity
  8
Livello 01
100
AcDbLine
 10
0.0
 20
-1.25
 30
2.999999999999989
 11
0.0
 21
-1.500000000000011
 31
2.74999999999998
  0
ENDBLK
  5
13A
330
FF
100
AcDbEntity
  8
0
100
AcDbBlockEnd
  0
BLOCK
  5
1E8
330
13D
100
AcDbEntity
  8
0
100
AcDbBlockBegin
  2
10PL11960YY
 70
     0
 10
0.0
 20
0.0
 30
0.0
  3
10PL11960YY
  1

  0
CIRCLE
  5
13E
330
13D
100
AcDbEntity
  8
Livello 01
100
AcDbCircle
 10
0.0
 20
0.0
 30
-18.0
 40
11.5
  0
LINE
  5
13F
330
13D
100
AcDbEntity
  8
Livello 01
100
AcDbLine
 10
11.5
 20
0.0
 30
-18.0
 11
11.5
 21
0.0
 31
-8.0
  0
CIRCLE
  5
140
330
13D
100
AcDbEntity
  8
Livello 01
100
AcDbCircle
 10
0.0
 20
0.0
 30
-9.5
 40
5.55
  0
CIRCLE
  5
141
330
13D
100
AcDbEntity
  8
Livello 01
100
AcDbCircle
 10
0.0000000000000009
 20
0.0
 30
0.0
 40
5.55
  0
LINE
  5
142
330
13D
100
AcDbEntity
  8
Livello 01
100
AcDbLine
 10
5.550000000000002
 20
0.0
 30
-3.270500012196672
 11
5.550000000000002
 21
0.0
 31
-0.0000000000000007
  0
LINE
  5
143
330
13D
100
AcDbEntity
  8
Livello 01
100
AcDbLine
 10
5.550000000000002
 20
0.0
 30
-9.5
 11
5.550000000000002
 21
0.0
 31
-5.729500000000007
  0
CIRCLE
  5
144
330
13D
100
AcDbEntity
  8
Livello 01
100
AcDbCircle
 10
0.0
 20
0.0
 30
-9.5
 40
8.99999999999999
  0
LINE
  5
145
330
13D
100
AcDbEntity
  8
Livello 01
100
AcDbLine
 10
8.999999999999991
 20
0.0
 30
-17.0
 11
8.999999999999991
 21
0.0
 31
-9.500000000000002
  0
CIRCLE
  5
146
330
13D
100
AcDbEntity
  8
Livello 01
100
AcDbCircle
 10
0.0
 20
-15.5
 30
9.5
 40
1.0
210
0.0
220
1.0
230
0.0
  0
SPLINE
  5
147
330
13D
100
AcDbEntity
  8
Livello 01
100
AcDbSpline
 70
     3
 71
     3
 72
    15
 73
    11
 74
     0
 42
0.0000000001
 43
0.0000000001
 40
-6.746804428927956
 40
-6.746804428927956
 40
-6.746804428927956
 40
-6.746804428927956
 40
-5.903453875311961
 40
-5.060103321695971
 40
-4.216752768079972
 40
-3.373402214463984
 40
-2.530051660847985
 40
-1.686701107231997
 40
-0.8433505536159986
 40
0.0
 40
0.0
 40
0.0
 40
0.0
 10
0.0
 20
11.50000000000002
 30
-14.50000000000002
 10
-0.261365964152768
 20
11.5000069670842
 30
-14.49995914994787
 10
-0.783702629243718
 20
11.4782474266814
 30
-14.7167693051034
 10
-1.1080536042776
 20
11.4455393148103
 30
-15.4991491276306
 10
-0.784082069720094
 20
11.4782308155703
 30
-16.2833773287026
 10
-0.0001826033220808
 20
11.5108605814827
 30
-16.6080575725867
 10
0.782627983572584
 20
11.4783268239188
 30
-16.2843919832809
 10
1.10821900933709
 20
11.4455258056724
 30
-15.5011035846482
 10
0.784493155672888
 20
11.4782056241763
 30
-14.7170144054163
 10
0.2613659641527656
 20
11.49999303291583
 30
-14.50004085005217
 10
-0.0000000000000031
 20
11.50000000000002
 30
-14.50000000000002
  0
LINE
  5
148
330
13D
100
AcDbEntity
  8
Livello 01
100
AcDbLine
 10
0.0
 20
11.50000000000002
 30
-14.5
 11
0.0
 21
9.5
 31
-14.5
  0
ARC
  5
149
330
13D
100
AcDbEntity
  8
Livello 01
100
AcDbCircle
 10
0.0
 20
0.0
 30
17.0
 40
8.99999999999999
210
0.0
220
0.0
230
-1.0
100
AcDbArc
 50
0.000000000000014
 51
180.0
  0
ARC
  5
14A
330
13D
100
AcDbEntity
  8
Livello 01
100
AcDbCircle
 10
0.0
 20
0.0
 30
-18.0
 40
9.57735026918962
100
AcDbArc
 50
180.0
 51
0.0
  0
LINE
  5
14B
330
13D
100
AcDbEntity
  8
Livello 01
100
AcDbLine
 10
-8.999999999999991
 20
0.0
 30
-16.99999999999999
 11
-9.57735026918962
 21
0.0
 31
-18.0
  0
ARC
  5
14C
330
13D
100
AcDbEntity
  8
Livello 01
100
AcDbCircle
 10
0.0
 20
0.0
 30
17.0
 40
8.99999999999999
210
0.0
220
0.0
230
-1.0
100
AcDbArc
 50
180.0
 51
0.0
  0
ARC
  5
14D
330
13D
100
AcDbEntity
  8
Livello 01
100
AcDbCircle
 10
0.0
 20
0.0
 30
-18.0
 40
9.57735026918962
100
AcDbArc
 50
0.0
 51
180.0
  0
CIRCLE
  5
14E
330
13D
100
AcDbEntity
  8
Livello 01
100
AcDbCircle
 10
0.0
 20
0.0
 30
7.0
 40
9.0
210
0.0
220
0.0
230
-1.0
  0
LINE
  5
14F
330
13D
100
AcDbEntity
  8
Livello 01
100
AcDbLine
 10
9.0
 20
0.0
 30
-3.270499907393742
 11
9.0
 21
0.0
 31
2.000000000000005
  0
LINE
  5
150
330
13D
100
AcDbEntity
  8
Livello 01
100
AcDbLine
 10
9.0
 20
0.0
 30
-6.999999999999999
 11
9.0
 21
0.0
 31
-5.729500000000002
  0
SPLINE
  5
151
330
13D
100
AcDbEntity
  8
Livello 01
100
AcDbSpline
210
0.0
220
0.0
230
1.0
 70
    24
 71
     2
 72
     6
 73
     3
 74
     0
 42
0.0000000001
 43
0.0000000001
 40
-6.0
 40
-6.0
 40
-6.0
 40
0.0
 40
0.0
 40
0.0
 10
-3.0
 20
4.0
 30
10.5
 10
0.0
 20
4.0
 30
10.5
 10
3.0
 20
4.0
 30
10.5
  0
SPLINE
  5
152
330
13D
100
AcDbEntity
  8
Livello 01
100
AcDbSpline
210
0.0
220
0.0
230
1.0
 70
    24
 71
     2
 72
     6
 73
     3
 74
     0
 42
0.0000000001
 43
0.0000000001
 40
-7.14142842854286
 40
-7.14142842854286
 40
-7.14142842854286
 40
0.0
 40
0.0
 40
0.0
 10
-3.5
 20
-3.57071421427143
 30
10.5
 10
-3.5
 20
0.0
 30
10.5
 10
-3.5
 20
3.57071421427143
 30
10.5
  0
SPLINE
  5
153
330
13D
100
AcDbEntity
  8
Livello 01
100
AcDbSpline
210
0.0
220
0.0
230
1.0
 70
    24
 71
     2
 72
     6
 73
     3
 74
     0
 42
0.0000000001
 43
0.0000000001
 40
-6.0
 40
-6.0
 40
-6.0
 40
0.0
 40
0.0
 40
0.0
 10
3.0
 20
-4.0
 30
10.5
 10
0.0
 20
-4.0
 30
10.5
 10
-3.0
 20
-4.0
 30
10.5
  0
SPLINE
  5
154
330
13D
100
AcDbEntity
  8
Livello 01
100
AcDbSpline
210
0.0
220
0.0
230
1.0
 70
    24
 71
     2
 72
     6
 73
     3
 74
     0
 42
0.0000000001
 43
0.0000000001
 40
-7.14142842854284
 40
-7.14142842854284
 40
-7.14142842854284
 40
0.0
 40
0.0
 40
0.0
 10
3.5
 20
3.57071421427142
 30
10.5
 10
3.5
 20
0.0
 30
10.5
 10
3.5
 20
-3.57071421427142
 30
10.5
  0
ARC
  5
155
330
13D
100
AcDbEntity
  8
Livello 01
100
AcDbCircle
 10
-0.0000000000002416
 20
-0.0000000000003233
 30
-10.5
 40
5.000000000000403
210
0.0
220
0.0
230
-1.0
100
AcDbArc
 50
45.57299599919495
 51
53.13010235415599
  0
SPLINE
  5
156
330
13D
100
AcDbEntity
  8
Livello 01
100
AcDbSpline
210
0.0
220
0.0
230
1.0
 70
    24
 71
     2
 72
     6
 73
     3
 74
     0
 42
0.0000000001
 43
0.0000000001
 40
0.0
 40
0.0
 40
0.0
 40
7.5
 40
7.5
 40
7.5
 10
-3.0
 20
4.0
 30
10.5
 10
-3.0
 20
4.0
 30
6.75
 10
-3.0
 20
4.0
 30
3.0
  0
ARC
  5
157
330
13D
100
AcDbEntity
  8
Livello 01
100
AcDbCircle
 10
0.000000000000469
 20
-0.0000000000005898
 30
3.000000000000096
 40
5.000000000000753
100
AcDbArc
 50
126.8698976458443
 51
134.4270040008048
  0
SPLINE
  5
158
330
13D
100
AcDbEntity
  8
Livello 01
100
AcDbSpline
210
0.0
220
0.0
230
1.0
 70
    24
 71
     2
 72
     6
 73
     3
 74
     0
 42
0.0000000001
 43
0.0000000001
 40
0.0
 40
0.0
 40
0.0
 40
7.5
 40
7.5
 40
7.5
 10
-3.5
 20
3.57071421427143
 30
3.0
 10
-3.5
 20
3.57071421427143
 30
6.75
 10
-3.5
 20
3.57071421427143
 30
10.5
  0
SPLINE
  5
159
330
13D
100
AcDbEntity
  8
Livello 01
100
AcDbSpline
210
0.0
220
0.0
230
1.0
 70
    24
 71
     2
 72
     6
 73
     3
 74
     0
 42
0.0000000001
 43
0.0000000001
 40
-7.14142842854286
 40
-7.14142842854286
 40
-7.14142842854286
 40
0.0
 40
0.0
 40
0.0
 10
-3.5
 20
-3.57071421427143
 30
3.0
 10
-3.5
 20
0.0
 30
3.0
 10
-3.5
 20
3.57071421427143
 30
3.0
  0
SPLINE
  5
15A
330
13D
100
AcDbEntity
  8
Livello 01
100
AcDbSpline
210
0.0
220
0.0
230
1.0
 70
    24
 71
     2
 72
     6
 73
     3
 74
     0
 42
0.0000000001
 43
0.0000000001
 40
-7.5
 40
-7.5
 40
-7.5
 40
0.0
 40
0.0
 40
0.0
 10
-3.5
 20
-3.57071421427143
 30
10.5
 10
-3.5
 20
-3.57071421427143
 30
6.75
 10
-3.5
 20
-3.57071421427143
 30
3.0
  0
ARC
  5
15B
330
13D
100
AcDbEntity
  8
Livello 01
100
AcDbCircle
 10
0.0000000000004228
 20
0.00000000000054
 30
3.00000000000011
 40
5.000000000000686
100
AcDbArc
 50
225.5729959991952
 51
233.1301023541558
  0
SPLINE
  5
15C
330
13D
100
AcDbEntity
  8
Livello 01
100
AcDbSpline
210
0.0
220
0.0
230
1.0
 70
    24
 71
     2
 72
     6
 73
     3
 74
     0
 42
0.0000000001
 43
0.0000000001
 40
0.0
 40
0.0
 40
0.0
 40
7.5
 40
7.5
 40
7.5
 10
-3.0
 20
-4.0
 30
3.0
 10
-3.0
 20
-4.0
 30
6.75
 10
-3.0
 20
-4.0
 30
10.5
  0
ARC
  5
15D
330
13D
100
AcDbEntity
  8
Livello 01
100
AcDbCircle
 10
-0.0000000000004228
 20
0.00000000000054
 30
-10.5
 40
5.000000000000686
210
0.0
220
0.0
230
-1.0
100
AcDbArc
 50
306.8698976458442
 51
314.4270040008048
  0
SPLINE
  5
15E
330
13D
100
AcDbEntity
  8
Livello 01
100
AcDbSpline
210
0.0
220
0.0
230
1.0
 70
    24
 71
     2
 72
     6
 73
     3
 74
     0
 42
0.0000000001
 43
0.0000000001
 40
-6.0
 40
-6.0
 40
-6.0
 40
0.0
 40
0.0
 40
0.0
 10
3.0
 20
-4.0
 30
3.0
 10
0.0
 20
-4.0
 30
3.0
 10
-3.0
 20
-4.0
 30
3.0
  0
SPLINE
  5
15F
330
13D
100
AcDbEntity
  8
Livello 01
100
AcDbSpline
210
0.0
220
0.0
230
1.0
 70
    24
 71
     2
 72
     6
 73
     3
 74
     0
 42
0.0000000001
 43
0.0000000001
 40
-7.5
 40
-7.5
 40
-7.5
 40
0.0
 40
0.0
 40
0.0
 10
3.0
 20
-4.0
 30
10.5
 10
3.0
 20
-4.0
 30
6.75
 10
3.0
 20
-4.0
 30
3.0
  0
ARC
  5
160
330
13D
100
AcDbEntity
  8
Livello 01
100
AcDbCircle
 10
0.000000000000508
 20
-0.0000000000006288
 30
2.999999999999904
 40
4.999999999999192
100
AcDbArc
 50
306.8698976458437
 51
314.4270040008067
  0
SPLINE
  5
161
330
13D
100
AcDbEntity
  8
Livello 01
100
AcDbSpline
210
0.0
220
0.0
230
1.0
 70
    24
 71
     2
 72
     6
 73
     3
 74
     0
 42
0.0000000001
 43
0.0000000001
 40
0.0
 40
0.0
 40
0.0
 40
7.5
 40
7.5
 40
7.5
 10
3.5
 20
-3.57071421427142
 30
3.0
 10
3.5
 20
-3.57071421427142
 30
6.75
 10
3.5
 20
-3.57071421427142
 30
10.5
  0
ARC
  5
162
330
13D
100
AcDbEntity
  8
Livello 01
100
AcDbCircle
 10
-0.0000000000002878
 20
-0.0000000000003801
 30
-10.5
 40
4.999999999999523
210
0.0
220
0.0
230
-1.0
100
AcDbArc
 50
225.5729959991936
 51
233.130102354156
  0
SPLINE
  5
163
330
13D
100
AcDbEntity
  8
Livello 01
100
AcDbSpline
210
0.0
220
0.0
230
1.0
 70
    24
 71
     2
 72
     6
 73
     3
 74
     0
 42
0.0000000001
 43
0.0000000001
 40
-7.14142842854284
 40
-7.14142842854284
 40
-7.14142842854284
 40
0.0
 40
0.0
 40
0.0
 10
3.5
 20
3.57071421427142
 30
3.0
 10
3.5
 20
0.0
 30
3.0
 10
3.5
 20
-3.57071421427142
 30
3.0
  0
SPLINE
  5
164
330
13D
100
AcDbEntity
  8
Livello 01
100
AcDbSpline
210
0.0
220
0.0
230
1.0
 70
    24
 71
     2
 72
     6
 73
     3
 74
     0
 42
0.0000000001
 43
0.0000000001
 40
-7.5
 40
-7.5
 40
-7.5
 40
0.0
 40
0.0
 40
0.0
 10
3.5
 20
3.57071421427142
 30
10.5
 10
3.5
 20
3.57071421427142
 30
6.75
 10
3.5
 20
3.57071421427142
 30
3.0
  0
ARC
  5
165
330
13D
100
AcDbEntity
  8
Livello 01
100
AcDbCircle
 10
0.0000000000005471
 20
0.0000000000006786
 30
2.999999999999893
 40
4.99999999999913
100
AcDbArc
 50
45.57299599919329
 51
53.13010235415632
  0
SPLINE
  5
166
330
13D
100
AcDbEntity
  8
Livello 01
100
AcDbSpline
210
0.0
220
0.0
230
1.0
 70
    24
 71
     2
 72
     6
 73
     3
 74
     0
 42
0.0000000001
 43
0.0000000001
 40
0.0
 40
0.0
 40
0.0
 40
7.5
 40
7.5
 40
7.5
 10
3.0
 20
4.0
 30
3.0
 10
3.0
 20
4.0
 30
6.75
 10
3.0
 20
4.0
 30
10.5
  0
ARC
  5
167
330
13D
100
AcDbEntity
  8
Livello 01
100
AcDbCircle
 10
-0.0000000000005471
 20
0.0000000000006786
 30
-10.5
 40
4.99999999999913
210
0.0
220
0.0
230
-1.0
100
AcDbArc
 50
126.8698976458437
 51
134.4270040008067
  0
SPLINE
  5
168
330
13D
100
AcDbEntity
  8
Livello 01
100
AcDbSpline
210
0.0
220
0.0
230
1.0
 70
    24
 71
     2
 72
     6
 73
     3
 74
     0
 42
0.0000000001
 43
0.0000000001
 40
-6.0
 40
-6.0
 40
-6.0
 40
0.0
 40
0.0
 40
0.0
 10
-3.0
 20
4.0
 30
3.0
 10
0.0
 20
4.0
 30
3.0
 10
3.0
 20
4.0
 30
3.0
  0
ARC
  5
169
330
13D
100
AcDbEntity
  8
Livello 01
100
AcDbCircle
 10
0.0
 20
0.0
 30
-8.0
 40
11.5
100
AcDbArc
 50
180.0
 51
0.0
  0
ARC
  5
16A
330
13D
100
AcDbEntity
  8
Livello 01
100
AcDbCircle
 10
0.0
 20
0.0
 30
7.0
 40
10.9226497308104
210
0.0
220
0.0
230
-1.0
100
AcDbArc
 50
0.000000000000014
 51
180.0
  0
LINE
  5
16B
330
13D
100
AcDbEntity
  8
Livello 01
100
AcDbLine
 10
-10.9226497308104
 20
0.0
 30
-7.000000000000004
 11
-11.50000000000002
 21
0.0
 31
-7.999999999999989
  0
ARC
  5
16C
330
13D
100
AcDbEntity
  8
Livello 01
100
AcDbCircle
 10
0.0
 20
0.0
 30
-8.0
 40
11.5
100
AcDbArc
 50
0.0
 51
180.0
  0
ARC
  5
16D
330
13D
100
AcDbEntity
  8
Livello 01
100
AcDbCircle
 10
0.0
 20
0.0
 30
7.0
 40
10.9226497308104
210
0.0
220
0.0
230
-1.0
100
AcDbArc
 50
180.0
 51
0.0
  0
CIRCLE
  5
16E
330
13D
100
AcDbEntity
  8
Livello 01
100
AcDbCircle
 10
0.0
 20
0.0
 30
-3.0
 40
8.42264973081038
210
0.0
220
0.0
230
-1.0
  0
ARC
  5
16F
330
13D
100
AcDbEntity
  8
Livello 01
100
AcDbCircle
 10
0.0
 20
0.0
 30
2.0
 40
9.0
100
AcDbArc
 50
180.0
 51
0.000000000000007
  0
LINE
  5
170
330
13D
100
AcDbEntity
  8
Livello 01
100
AcDbLine
 10
-8.422649730810372
 20
0.0
 30
2.999999999999999
 11
-9.0
 21
0.0
 31
2.0
  0
ARC
  5
171
330
13D
100
AcDbEntity
  8
Livello 01
100
AcDbCircle
 10
0.0
 20
0.0
 30
2.0
 40
9.0
100
AcDbArc
 50
0.000000000000007
 51
180.0
  0
CIRCLE
  5
172
330
13D
100
AcDbEntity
  8
Livello 01
100
AcDbCircle
 10
-0.0000000000000033
 20
0.0
 30
0.0
 40
2.25
210
0.0
220
0.0
230
-1.0
  0
CIRCLE
  5
173
330
13D
100
AcDbEntity
  8
Livello 01
100
AcDbCircle
 10
0.0000000000000033
 20
0.0
 30
10.5
 40
2.25
  0
LINE
  5
174
330
13D
100
AcDbEntity
  8
Livello 01
100
AcDbLine
 10
2.25
 20
0.0
 30
-0.0000000000000004
 11
2.249999999999999
 21
0.0
 31
10.5
  0
SPLINE
  5
175
330
13D
100
AcDbEntity
  8
Livello 01
100
AcDbSpline
 70
     0
 71
     3
 72
    12
 73
     8
 74
     0
 42
0.0000000001
 43
0.0000000001
 40
-8.303586047849354
 40
-8.303586047849354
 40
-8.303586047849354
 40
-8.303586047849354
 40
-7.265637791868184
 40
-6.227689535887018
 40
-5.189741279905851
 40
-4.151793023924672
 40
-4.151290394796708
 40
-4.151290394796708
 40
-4.151290394796708
 40
-4.151290394796708
 10
9.000000000000002
 20
0.0000000000000002
 30
-5.729500000000005
 10
9.000013037932776
 20
-0.3213492600143549
 30
-5.729548565021527
 10
8.95798264903539
 20
-0.963576561818703
 30
-5.4629368037516
 10
8.89444753509382
 20
-1.36238340512874
 30
-4.50112645876198
 10
8.95796411596254
 20
-0.963888658571339
 30
-3.53669273133379
 10
8.99998154004511
 20
-0.3213401975272272
 30
-3.270624626003613
 10
9.000000010715144
 20
-0.0001554592091499
 30
-3.27049993660536
 10
9.000000014739
 20
-0.0000000000001233
 30
-3.270499907393743
  0
SPLINE
  5
176
330
13D
100
AcDbEntity
  8
Livello 01
100
AcDbSpline
 70
     0
 71
     3
 72
    12
 73
     8
 74
     0
 42
0.0000000001
 43
0.0000000001
 40
4.162987395631199
 40
4.162987395631199
 40
4.162987395631199
 40
4.162987395631199
 40
4.163537454232162
 40
5.204421817790213
 40
6.245306181348254
 40
7.286190544906292
 40
8.327074908464335
 40
8.327074908464335
 40
8.327074908464335
 40
8.327074908464335
 10
5.550000003736801
 20
0.0000000000000364
 30
-3.270500012196672
 10
5.550000004206217
 20
0.0001696406043157
 30
-3.270500006174863
 10
5.549982923147275
 20
0.3213528403374672
 30
-3.270558778232072
 10
5.48188625252782
 20
0.963566012344334
 30
-3.53636691866009
 10
5.3772130165795
 20
1.36244848752334
 30
-4.50133225455033
 10
5.48186384430388
 20
0.963638665311043
 30
-5.4628036401507
 10
5.55001805555504
 20
0.3213476995348769
 30
-5.729535294073806
 10
5.550000000000001
 20
-0.0000000000000002
 30
-5.729500000000007
  0
LINE
  5
177
330
13D
100
AcDbEntity
  8
Livello 01
100
AcDbLine
 10
5.550000000000001
 20
-0.0000000000000003
 30
-5.72950000000001
 11
9.000000000000002
 21
-0.0000000000000003
 31
-5.72950000000001
  0
SPLINE
  5
178
330
13D
100
AcDbEntity
  8
Livello 01
100
AcDbSpline
 70
     0
 71
     3
 72
    11
 73
     7
 74
     0
 42
0.0000000001
 43
0.0000000001
 40
-4.151290394796708
 40
-4.151290394796708
 40
-4.151290394796708
 40
-4.151290394796708
 40
-3.113844767943505
 40
-2.075896511962336
 40
-1.037948255981169
 40
0.0
 40
0.0
 40
0.0
 40
0.0
 10
9.000000014739
 20
-0.0000000000001233
 30
-3.270499907393743
 10
9.00000832012791
 20
0.3208737169928031
 30
-3.270439613504923
 10
8.958125545381728
 20
0.9623521103029519
 30
-3.535714555288513
 10
8.89442422208676
 20
1.36254766119113
 30
-4.49882613980946
 10
8.95790442143874
 20
0.964518998267425
 30
-5.46264541362247
 10
8.999986962067226
 20
0.3213492600143545
 30
-5.729451434978483
 10
9.0
 20
-0.0000000000000003
 30
-5.729500000000004
  0
SPLINE
  5
179
330
13D
100
AcDbEntity
  8
Livello 01
100
AcDbSpline
 70
     0
 71
     3
 72
    11
 73
     7
 74
     0
 42
0.0000000001
 43
0.0000000001
 40
0.0
 40
0.0
 40
0.0
 40
0.0
 40
1.040884363558041
 40
2.081768727116081
 40
3.122653090674122
 40
4.162987395631199
 40
4.162987395631199
 40
4.162987395631199
 40
4.162987395631199
 10
5.550000000000001
 20
-0.0000000000000001
 30
-5.729500000000007
 10
5.54998194444496
 20
-0.3213476995348766
 30
-5.729464705926206
 10
5.48175551097364
 20
-0.964447531898216
 30
-5.4625918757079
 10
5.3771875434763
 20
-1.36250890486182
 30
-4.49928528315333
 10
5.48207802299939
 20
-0.9625858276111325
 30
-3.535763346416624
 10
5.549999115921298
 20
-0.3208438879721476
 30
-3.270511401335486
 10
5.550000003736801
 20
0.0000000000000364
 30
-3.270500012196672
  0
SPLINE
  5
17A
330
13D
100
AcDbEntity
  8
Livello 01
100
AcDbSpline
 70
     3
 71
     3
 72
    15
 73
    11
 74
     0
 42
0.0000000001
 43
0.0000000001
 40
-8.30358604784936
 40
-8.30358604784936
 40
-8.30358604784936
 40
-8.30358604784936
 40
-7.265637791868189
 40
-6.227689535887022
 40
-5.189741279905854
 40
-4.151793023924674
 40
-3.113844767943506
 40
-2.075896511962337
 40
-1.037948255981169
 40
0.0
 40
0.0
 40
0.0
 40
0.0
 10
-9.0
 20
0.0000000000000002
 30
-3.270500000000005
 10
-9.000013037932773
 20
-0.3213492600143549
 30
-3.270451434978483
 10
-8.95798264903538
 20
-0.963576561818703
 30
-3.53706319624841
 10
-8.89444753509382
 20
-1.36238340512874
 30
-4.49887354123803
 10
-8.95796411596254
 20
-0.963888658571339
 30
-5.46330726866623
 10
-9.02097499549569
 20
-0.0002992773304312
 30
-5.86231281692703
 10
-8.95813582955197
 20
0.962287501297006
 30
-5.46444093290209
 10
-8.89442422208676
 20
1.36254766119113
 30
-4.50117386019055
 10
-8.95790442143874
 20
0.964518998267425
 30
-3.53735458637754
 10
-8.999986962067226
 20
0.3213492600143545
 30
-3.270548565021526
 10
-9.0
 20
0.0000000000000001
 30
-3.270500000000005
  0
SPLINE
  5
17B
330
13D
100
AcDbEntity
  8
Livello 01
100
AcDbSpline
 70
     3
 71
     3
 72
    15
 73
    11
 74
     0
 42
0.0000000001
 43
0.0000000001
 40
0.0
 40
0.0
 40
0.0
 40
0.0
 40
1.04088436355804
 40
2.081768727116079
 40
3.122653090674119
 40
4.163537454232157
 40
5.204421817790207
 40
6.245306181348248
 40
7.286190544906285
 40
8.327074908464326
 40
8.327074908464326
 40
8.327074908464326
 40
8.327074908464326
 10
-5.550000000000001
 20
-0.0000000000000001
 30
-3.270500000000005
 10
-5.54998194444496
 20
-0.3213476995348767
 30
-3.270535294073803
 10
-5.48175551097364
 20
-0.964447531898217
 30
-3.53740812429211
 10
-5.37718754347629
 20
-1.36250890486182
 30
-4.50071471684668
 10
-5.48209650282207
 20
-0.962515368332209
 30
-5.46440640888072
 10
-5.58400427616233
 20
0.0005007217681318
 30
-5.86223996945291
 10
-5.48188625252781
 20
0.963566012344335
 30
-5.46363308133992
 10
-5.3772130165795
 20
1.36244848752334
 30
-4.49866774544969
 10
-5.48186384430388
 20
0.963638665311042
 30
-3.53719635984932
 10
-5.55001805555504
 20
0.3213476995348768
 30
-3.270464705926207
 10
-5.550000000000001
 20
0.0000000000000001
 30
-3.270500000000005
  0
LINE
  5
17C
330
13D
100
AcDbEntity
  8
Livello 01
100
AcDbLine
 10
-9.0
 20
0.0000000000000001
 30
-3.27050000000001
 11
-5.55
 21
0.0000000000000001
 31
-3.27050000000001
  0
CIRCLE
  5
17D
330
13D
100
AcDbEntity
  8
Livello 01
100
AcDbCircle
 10
-0.0000000000000728
 20
7.5
 30
4.0
 40
2.6
210
0.0
220
-1.0
230
0.0
  0
ARC
  5
17E
330
13D
100
AcDbEntity
  8
Livello 01
100
AcDbCircle
 10
-0.0000000000000728
 20
7.5
 30
3.0
 40
0.867949192431124
210
0.0
220
-1.0
230
0.0
100
AcDbArc
 50
270.0
 51
90.00000000000001
  0
LINE
  5
17F
330
13D
100
AcDbEntity
  8
Livello 01
100
AcDbLine
 10
-0.0000000000000728
 20
-3.0
 30
6.632050807568876
 11
-0.0000000000000728
 21
-3.999999999999996
 31
4.899999999999997
  0
ARC
  5
180
330
13D
100
AcDbEntity
  8
Livello 01
100
AcDbCircle
 10
-0.0000000000000728
 20
7.5
 30
3.0
 40
0.867949192431124
210
0.0
220
-1.0
230
0.0
100
AcDbArc
 50
90.00000000000001
 51
270.0
  0
CIRCLE
  5
181
330
13D
100
AcDbEntity
  8
Livello 01
100
AcDbCircle
 10
0.0000000000000728
 20
7.5
 30
4.0
 40
2.6
210
0.0
220
1.0
230
0.0
  0
ARC
  5
182
330
13D
100
AcDbEntity
  8
Livello 01
100
AcDbCircle
 10
0.0000000000000728
 20
7.5
 30
3.0
 40
0.867949192431124
210
0.0
220
1.0
230
0.0
100
AcDbArc
 50
90.00000000000001
 51
270.0
  0
LINE
  5
183
330
13D
100
AcDbEntity
  8
Livello 01
100
AcDbLine
 10
-0.0000000000000728
 20
3.0
 30
8.367949192431125
 11
-0.0000000000000728
 21
3.999999999999996
 31
10.1
  0
ARC
  5
184
330
13D
100
AcDbEntity
  8
Livello 01
100
AcDbCircle
 10
0.0000000000000728
 20
7.5
 30
3.0
 40
0.867949192431124
210
0.0
220
1.0
230
0.0
100
AcDbArc
 50
270.0
 51
90.0
  0
CIRCLE
  5
185
330
13D
100
AcDbEntity
  8
Livello 01
100
AcDbCircle
 10
0.000000000000002
 20
0.0
 30
-13.0
 40
11.5
  0
LINE
  5
186
330
13D
100
AcDbEntity
  8
Livello 01
100
AcDbLine
 10
0.0000000000000024
 20
11.5
 30
-18.0
 11
0.0000000000000022
 21
11.5
 31
-16.50000012569587
  0
LINE
  5
187
330
13D
100
AcDbEntity
  8
Livello 01
100
AcDbLine
 10
0.0000000000000021
 20
11.5
 30
-14.50000000000002
 11
0.0000000000000016
 21
11.5
 31
-8.0
  0
LINE
  5
188
330
13D
100
AcDbEntity
  8
Livello 01
100
AcDbLine
 10
-11.49999999999999
 20
0.0
 30
-18.0
 11
-11.5
 21
0.0
 31
-8.0
  0
LINE
  5
189
330
13D
100
AcDbEntity
  8
Livello 01
100
AcDbLine
 10
0.0000000000000024
 20
-11.5
 30
-18.0
 11
0.0000000000000016
 21
-11.5
 31
-8.0
  0
LINE
  5
18A
330
13D
100
AcDbEntity
  8
Livello 01
100
AcDbLine
 10
-11.5
 20
0.0
 30
-18.0
 11
-9.577350269189619
 21
0.0
 31
-18.0
  0
LINE
  5
18B
330
13D
100
AcDbEntity
  8
Livello 01
100
AcDbLine
 10
9.577350269189616
 20
0.0
 30
-18.0
 11
11.5
 21
0.0
 31
-18.0
  0
LINE
  5
18C
330
13D
100
AcDbEntity
  8
Livello 01
100
AcDbLine
 10
0.0
 20
-11.5
 30
-18.0
 11
0.0
 21
-9.57735026918962
 31
-18.0
  0
LINE
  5
18D
330
13D
100
AcDbEntity
  8
Livello 01
100
AcDbLine
 10
0.0
 20
9.577350269189623
 30
-18.0
 11
0.0
 21
11.5
 31
-18.0
  0
LINE
  5
18E
330
13D
100
AcDbEntity
  8
Livello 01
100
AcDbLine
 10
-5.549999999999998
 20
-0.0000000000000004
 30
-0.0000000000000009
 11
-2.249999999999997
 21
-0.0000000000000004
 31
-0.0000000000000006
  0
LINE
  5
18F
330
13D
100
AcDbEntity
  8
Livello 01
100
AcDbLine
 10
2.250000000000003
 20
-0.0000000000000004
 30
-0.0000000000000003
 11
5.550000000000002
 21
-0.0000000000000004
 31
0.0
  0
LINE
  5
190
330
13D
100
AcDbEntity
  8
Livello 01
100
AcDbLine
 10
0.0000000000000009
 20
-5.55
 30
-0.0000000000000005
 11
0.0000000000000009
 21
-2.249999999999999
 31
-0.0000000000000005
  0
LINE
  5
191
330
13D
100
AcDbEntity
  8
Livello 01
100
AcDbLine
 10
0.0000000000000009
 20
2.250000000000001
 30
-0.0000000000000005
 11
0.0000000000000009
 21
5.550000000000001
 31
-0.0000000000000005
  0
ARC
  5
192
330
13D
100
AcDbEntity
  8
Livello 01
100
AcDbCircle
 10
0.0000000000000017
 20
0.0
 30
-4.75
 40
5.55
100
AcDbArc
 50
12.52212766509938
 51
167.4809451072543
  0
ARC
  5
193
330
13D
100
AcDbEntity
  8
Livello 01
100
AcDbCircle
 10
0.0000000000000017
 20
0.0
 30
-4.75
 40
5.55
100
AcDbArc
 50
192.5198227436452
 51
347.4785672138502
  0
LINE
  5
194
330
13D
100
AcDbEntity
  8
Livello 01
100
AcDbLine
 10
0.0000000000000017
 20
5.55
 30
-9.5
 11
0.0000000000000017
 21
5.55
 31
-0.0000000000000001
  0
LINE
  5
195
330
13D
100
AcDbEntity
  8
Livello 01
100
AcDbLine
 10
-5.549999999999998
 20
0.0
 30
-9.499999999999998
 11
-5.549999999999998
 21
0.0
 31
-5.729500002123316
  0
LINE
  5
196
330
13D
100
AcDbEntity
  8
Livello 01
100
AcDbLine
 10
-5.549999999999998
 20
0.0
 30
-3.270500000000006
 11
-5.549999999999998
 21
0.0
 31
0.0000000000000004
  0
LINE
  5
197
330
13D
100
AcDbEntity
  8
Livello 01
100
AcDbLine
 10
0.0000000000000017
 20
-5.55
 30
-9.5
 11
0.0000000000000017
 21
-5.55
 31
-0.0000000000000001
  0
LINE
  5
198
330
13D
100
AcDbEntity
  8
Livello 01
100
AcDbLine
 10
-8.999999999999984
 20
-0.0000000000000009
 30
-9.500000000000002
 11
-5.549999999999998
 21
-0.0000000000000009
 31
-9.500000000000002
  0
LINE
  5
199
330
13D
100
AcDbEntity
  8
Livello 01
100
AcDbLine
 10
5.55
 20
-0.0000000000000009
 30
-9.5
 11
8.999999999999988
 21
-0.0000000000000009
 31
-9.5
  0
LINE
  5
19A
330
13D
100
AcDbEntity
  8
Livello 01
100
AcDbLine
 10
-0.0000000000000009
 20
-8.999999999999986
 30
-9.5
 11
-0.0000000000000009
 21
-5.549999999999999
 31
-9.5
  0
LINE
  5
19B
330
13D
100
AcDbEntity
  8
Livello 01
100
AcDbLine
 10
-0.0000000000000009
 20
5.55
 30
-9.5
 11
-0.0000000000000009
 21
8.99999999999999
 31
-9.5
  0
CIRCLE
  5
19C
330
13D
100
AcDbEntity
  8
Livello 01
100
AcDbCircle
 10
0.0000000000000023
 20
0.0
 30
-13.25000000000001
 40
8.99999999999999
  0
LINE
  5
19D
330
13D
100
AcDbEntity
  8
Livello 01
100
AcDbLine
 10
0.0000000000000023
 20
8.99999999999999
 30
-17.0
 11
0.0000000000000023
 21
8.99999999999999
 31
-9.500000000000004
  0
LINE
  5
19E
330
13D
100
AcDbEntity
  8
Livello 01
100
AcDbLine
 10
-8.999999999999986
 20
0.0
 30
-17.0
 11
-8.999999999999986
 21
0.0
 31
-9.500000000000004
  0
LINE
  5
19F
330
13D
100
AcDbEntity
  8
Livello 01
100
AcDbLine
 10
0.0000000000000023
 20
-8.99999999999999
 30
-17.0
 11
0.0000000000000023
 21
-8.99999999999999
 31
-9.500000000000004
  0
CIRCLE
  5
1A0
330
13D
100
AcDbEntity
  8
Livello 01
100
AcDbCircle
 10
0.0
 20
-15.5
 30
-10.50543029074135
 40
1.0
210
0.0
220
-1.0
230
0.0
  0
LINE
  5
1A1
330
13D
100
AcDbEntity
  8
Livello 01
100
AcDbLine
 10
-1.0
 20
11.45643926004801
 30
-15.5
 11
-1.0
 21
9.5
 31
-15.5
  0
LINE
  5
1A2
330
13D
100
AcDbEntity
  8
Livello 01
100
AcDbLine
 10
0.0
 20
11.50000000953518
 30
-16.5
 11
0.0
 21
9.5
 31
-16.5
  0
LINE
  5
1A3
330
13D
100
AcDbEntity
  8
Livello 01
100
AcDbLine
 10
1.0
 20
11.45643925317369
 30
-15.5
 11
1.0
 21
9.5
 31
-15.5
  0
LINE
  5
1A4
330
13D
100
AcDbEntity
  8
Livello 01
100
AcDbLine
 10
0.0
 20
9.5
 30
-14.5
 11
0.0
 21
9.5
 31
-16.5
  0
LINE
  5
1A5
330
13D
100
AcDbEntity
  8
Livello 01
100
AcDbLine
 10
-1.0
 20
9.5
 30
-15.5
 11
0.9999999999999998
 21
9.5
 31
-15.5
  0
LINE
  5
1A6
330
13D
100
AcDbEntity
  8
Livello 01
100
AcDbLine
 10
-0.0000000000000001
 20
8.999999999999991
 30
-17.0
 11
0.0
 21
9.577350269189619
 31
-18.0
  0
LINE
  5
1A7
330
13D
100
AcDbEntity
  8
Livello 01
100
AcDbLine
 10
8.999999999999991
 20
0.0
 30
-17.0
 11
9.577350269189619
 21
0.0
 31
-18.0
  0
LINE
  5
1A8
330
13D
100
AcDbEntity
  8
Livello 01
100
AcDbLine
 10
-0.0000000000000001
 20
-8.999999999999991
 30
-17.0
 11
0.0
 21
-9.577350269189619
 31
-18.0
  0
LINE
  5
1A9
330
13D
100
AcDbEntity
  8
Livello 01
100
AcDbLine
 10
-10.9226497308104
 20
-0.0000000000000009
 30
-7.0
 11
-9.0
 21
-0.0000000000000009
 31
-7.0
  0
LINE
  5
1AA
330
13D
100
AcDbEntity
  8
Livello 01
100
AcDbLine
 10
9.0
 20
-0.0000000000000009
 30
-7.0
 11
10.9226497308104
 21
-0.0000000000000009
 31
-7.0
  0
LINE
  5
1AB
330
13D
100
AcDbEntity
  8
Livello 01
100
AcDbLine
 10
-0.0000000000000009
 20
-10.9226497308104
 30
-7.0
 11
-0.0000000000000009
 21
-9.0
 31
-7.0
  0
LINE
  5
1AC
330
13D
100
AcDbEntity
  8
Livello 01
100
AcDbLine
 10
-0.0000000000000009
 20
9.0
 30
-7.0
 11
-0.0000000000000009
 21
10.9226497308104
 31
-7.0
  0
CIRCLE
  5
1AD
330
13D
100
AcDbEntity
  8
Livello 01
100
AcDbCircle
 10
0.0
 20
0.0
 30
-2.5
 40
9.0
  0
LINE
  5
1AE
330
13D
100
AcDbEntity
  8
Livello 01
100
AcDbLine
 10
0.0
 20
9.0
 30
-7.0
 11
0.0
 21
9.0
 31
2.000000000000001
  0
LINE
  5
1AF
330
13D
100
AcDbEntity
  8
Livello 01
100
AcDbLine
 10
-9.0
 20
0.0
 30
-6.999999999999998
 11
-9.0
 21
0.0
 31
-5.729500117726111
  0
LINE
  5
1B0
330
13D
100
AcDbEntity
  8
Livello 01
100
AcDbLine
 10
-9.0
 20
0.0
 30
-3.270500000000005
 11
-9.0
 21
0.0
 31
2.000000000000001
  0
LINE
  5
1B1
330
13D
100
AcDbEntity
  8
Livello 01
100
AcDbLine
 10
0.0
 20
-9.0
 30
-7.0
 11
0.0
 21
-9.0
 31
2.000000000000001
  0
LINE
  5
1B2
330
13D
100
AcDbEntity
  8
Livello 01
100
AcDbLine
 10
3.5
 20
0.0
 30
10.5
 11
2.250000000000003
 21
0.0
 31
10.5
  0
LINE
  5
1B3
330
13D
100
AcDbEntity
  8
Livello 01
100
AcDbLine
 10
-2.249999999999996
 20
0.0
 30
10.5
 11
-3.5
 21
0.0
 31
10.5
  0
LINE
  5
1B4
330
13D
100
AcDbEntity
  8
Livello 01
100
AcDbLine
 10
-0.0000000000000009
 20
-4.0
 30
10.5
 11
-0.0000000000000009
 21
-2.250000000000001
 31
10.5
  0
LINE
  5
1B5
330
13D
100
AcDbEntity
  8
Livello 01
100
AcDbLine
 10
-0.0000000000000009
 20
2.250000000000001
 30
10.5
 11
-0.0000000000000009
 21
4.0
 31
10.5
  0
ARC
  5
1B6
330
13D
100
AcDbEntity
  8
Livello 01
100
AcDbCircle
 10
0.0000000000000003
 20
0.0
 30
6.749999999999999
 40
5.0
100
AcDbArc
 50
126.869897645844
 51
134.4270040008057
  0
LINE
  5
1B7
330
13D
100
AcDbEntity
  8
Livello 01
100
AcDbLine
 10
-3.5
 20
-3.57071421427143
 30
6.75
 11
-3.5
 21
3.570714214271429
 31
6.75
  0
LINE
  5
1B8
330
13D
100
AcDbEntity
  8
Livello 01
100
AcDbLine
 10
-3.5
 20
0.0
 30
3.0
 11
-3.5
 21
0.0
 31
10.5
  0
ARC
  5
1B9
330
13D
100
AcDbEntity
  8
Livello 01
100
AcDbCircle
 10
0.0000000000000003
 20
0.0
 30
6.749999999999999
 40
5.0
100
AcDbArc
 50
225.5729959991943
 51
233.130102354156
  0
LINE
  5
1BA
330
13D
100
AcDbEntity
  8
Livello 01
100
AcDbLine
 10
0.0
 20
-4.0
 30
3.0
 11
0.0
 21
-4.0
 31
4.899999999999991
  0
LINE
  5
1BB
330
13D
100
AcDbEntity
  8
Livello 01
100
AcDbLine
 10
0.0
 20
-4.0
 30
10.1
 11
0.0
 21
-4.0
 31
10.5
  0
LINE
  5
1BC
330
13D
100
AcDbEntity
  8
Livello 01
100
AcDbLine
 10
-3.0
 20
-4.0
 30
6.75
 11
-2.489477856900995
 21
-4.0
 31
6.75
  0
LINE
  5
1BD
330
13D
100
AcDbEntity
  8
Livello 01
100
AcDbLine
 10
2.48947785690085
 20
-4.0
 30
6.75
 11
3.0
 21
-4.0
 31
6.75
  0
ARC
  5
1BE
330
13D
100
AcDbEntity
  8
Livello 01
100
AcDbCircle
 10
0.0000000000000003
 20
0.0
 30
6.749999999999999
 40
5.0
100
AcDbArc
 50
306.869897645844
 51
314.4270040008058
  0
LINE
  5
1BF
330
13D
100
AcDbEntity
  8
Livello 01
100
AcDbLine
 10
3.5
 20
3.57071421427142
 30
6.75
 11
3.5
 21
-3.570714214271419
 31
6.75
  0
LINE
  5
1C0
330
13D
100
AcDbEntity
  8
Livello 01
100
AcDbLine
 10
3.5
 20
0.0
 30
3.0
 11
3.5
 21
0.0
 31
10.5
  0
ARC
  5
1C1
330
13D
100
AcDbEntity
  8
Livello 01
100
AcDbCircle
 10
0.0000000000000003
 20
0.0
 30
6.749999999999999
 40
5.0
100
AcDbArc
 50
45.57299599919426
 51
53.13010235415599
  0
LINE
  5
1C2
330
13D
100
AcDbEntity
  8
Livello 01
100
AcDbLine
 10
0.0
 20
4.0
 30
10.5
 11
0.0
 21
4.0
 31
10.1
  0
LINE
  5
1C3
330
13D
100
AcDbEntity
  8
Livello 01
100
AcDbLine
 10
0.0
 20
4.0
 30
4.899999999999991
 11
0.0
 21
4.0
 31
3.0
  0
LINE
  5
1C4
330
13D
100
AcDbEntity
  8
Livello 01
100
AcDbLine
 10
-3.0
 20
4.0
 30
6.75
 11
-2.489477856900995
 21
4.0
 31
6.75
  0
LINE
  5
1C5
330
13D
100
AcDbEntity
  8
Livello 01
100
AcDbLine
 10
2.489477856900844
 20
4.0
 30
6.75
 11
3.0
 21
4.0
 31
6.75
  0
LINE
  5
1C6
330
13D
100
AcDbEntity
  8
Livello 01
100
AcDbLine
 10
8.422649730810377
 20
-0.0000000000000009
 30
3.0
 11
3.5
 21
-0.0000000000000009
 31
3.0
  0
LINE
  5
1C7
330
13D
100
AcDbEntity
  8
Livello 01
100
AcDbLine
 10
-3.499999999999999
 20
-0.0000000000000009
 30
2.999999999999999
 11
-8.422649730810374
 21
-0.0000000000000009
 31
2.999999999999998
  0
LINE
  5
1C8
330
13D
100
AcDbEntity
  8
Livello 01
100
AcDbLine
 10
0.0
 20
-8.422649730810376
 30
2.999999999999999
 11
0.0
 21
-3.999999999999999
 31
2.999999999999999
  0
LINE
  5
1C9
330
13D
100
AcDbEntity
  8
Livello 01
100
AcDbLine
 10
0.0
 20
4.0
 30
2.999999999999999
 11
0.0
 21
8.422649730810381
 31
2.999999999999999
  0
LINE
  5
1CA
330
13D
100
AcDbEntity
  8
Livello 01
100
AcDbLine
 10
0.0
 20
10.9226497308104
 30
-6.999999999999998
 11
0.0000000000000001
 21
11.50000000000002
 31
-7.999999999999985
  0
LINE
  5
1CB
330
13D
100
AcDbEntity
  8
Livello 01
100
AcDbLine
 10
10.9226497308104
 20
0.0
 30
-6.999999999999998
 11
11.50000000000002
 21
0.0
 31
-7.999999999999985
  0
LINE
  5
1CC
330
13D
100
AcDbEntity
  8
Livello 01
100
AcDbLine
 10
0.0
 20
-10.9226497308104
 30
-6.999999999999998
 11
0.0000000000000001
 21
-11.50000000000002
 31
-7.999999999999985
  0
LINE
  5
1CD
330
13D
100
AcDbEntity
  8
Livello 01
100
AcDbLine
 10
0.0
 20
8.422649730810374
 30
2.999999999999998
 11
0.0
 21
9.0
 31
1.999999999999999
  0
LINE
  5
1CE
330
13D
100
AcDbEntity
  8
Livello 01
100
AcDbLine
 10
8.422649730810374
 20
0.0
 30
2.999999999999998
 11
9.0
 21
0.0
 31
1.999999999999999
  0
LINE
  5
1CF
330
13D
100
AcDbEntity
  8
Livello 01
100
AcDbLine
 10
0.0
 20
-8.422649730810374
 30
2.999999999999998
 11
0.0
 21
-9.0
 31
1.999999999999999
  0
CIRCLE
  5
1D0
330
13D
100
AcDbEntity
  8
Livello 01
100
AcDbCircle
 10
-0.0000000000000005
 20
0.0
 30
5.250000000000005
 40
2.25
  0
LINE
  5
1D1
330
13D
100
AcDbEntity
  8
Livello 01
100
AcDbLine
 10
-0.0000000000000001
 20
2.25
 30
0.0
 11
-0.000000000000001
 21
2.25
 31
10.5
  0
LINE
  5
1D2
330
13D
100
AcDbEntity
  8
Livello 01
100
AcDbLine
 10
-2.25
 20
0.0
 30
-0.0000000000000002
 11
-2.250000000000001
 21
0.0
 31
10.5
  0
LINE
  5
1D3
330
13D
100
AcDbEntity
  8
Livello 01
100
AcDbLine
 10
-0.0000000000000001
 20
-2.25
 30
0.0
 11
-0.000000000000001
 21
-2.25
 31
10.5
  0
CIRCLE
  5
1D4
330
13D
100
AcDbEntity
  8
Livello 01
100
AcDbCircle
 10
0.0
 20
-4.50000000000001
 30
7.199081269485991
 40
1.2295
210
1.0
220
0.0
230
0.0
  0
LINE
  5
1D5
330
13D
100
AcDbEntity
  8
Livello 01
100
AcDbLine
 10
5.412100430145953
 20
1.2295
 30
-4.50000000000001
 11
8.915622805394122
 21
1.2295
 31
-4.50000000000001
  0
LINE
  5
1D6
330
13D
100
AcDbEntity
  8
Livello 01
100
AcDbLine
 10
5.550000004137108
 20
0.0000000000000003
 30
-3.27050000000001
 11
9.000000014845009
 21
0.0000000000000003
 31
-3.27050000000001
  0
LINE
  5
1D7
330
13D
100
AcDbEntity
  8
Livello 01
100
AcDbLine
 10
5.412100292570406
 20
-1.2295
 30
-4.50000000000001
 11
8.915622842860714
 21
-1.2295
 31
-4.50000000000001
  0
CIRCLE
  5
1D8
330
13D
100
AcDbEntity
  8
Livello 01
100
AcDbCircle
 10
0.0
 20
-4.50000000000001
 30
-7.19908126948599
 40
1.2295
210
1.0
220
0.0
230
0.0
  0
LINE
  5
1D9
330
13D
100
AcDbEntity
  8
Livello 01
100
AcDbLine
 10
-8.915622842860712
 20
-1.2295
 30
-4.50000000000001
 11
-5.412100292570399
 21
-1.2295
 31
-4.50000000000001
  0
LINE
  5
1DA
330
13D
100
AcDbEntity
  8
Livello 01
100
AcDbLine
 10
-9.00000001484501
 20
-0.0000000000000001
 30
-5.72950000000001
 11
-5.5500000041371
 21
-0.0000000000000001
 31
-5.72950000000001
  0
LINE
  5
1DB
330
13D
100
AcDbEntity
  8
Livello 01
100
AcDbLine
 10
-8.915622805394122
 20
1.2295
 30
-4.50000000000001
 11
-5.41210043014595
 21
1.2295
 31
-4.50000000000001
  0
LINE
  5
1DC
330
13D
100
AcDbEntity
  8
Livello 01
100
AcDbLine
 10
-0.0000000000000728
 20
-3.0
 30
6.632050807568876
 11
-0.0000000000000728
 21
-3.0
 31
8.367949192431126
  0
LINE
  5
1DD
330
13D
100
AcDbEntity
  8
Livello 01
100
AcDbLine
 10
-0.8679491924311968
 20
-3.0
 30
7.5
 11
0.8679491924310514
 21
-3.0
 31
7.5
  0
CIRCLE
  5
1DE
330
13D
100
AcDbEntity
  8
Livello 01
100
AcDbCircle
 10
-0.0000000000000728
 20
7.5
 30
3.354500185048139
 40
1.481961524227073
210
0.0
220
-1.0
230
0.0
  0
LINE
  5
1DF
330
13D
100
AcDbEntity
  8
Livello 01
100
AcDbLine
 10
0.8679491924310511
 20
-3.0
 30
7.5
 11
2.599999999999929
 21
-3.999999999999996
 31
7.5
  0
LINE
  5
1E0
330
13D
100
AcDbEntity
  8
Livello 01
100
AcDbLine
 10
-0.0000000000000728
 20
-3.0
 30
8.367949192431123
 11
-0.0000000000000728
 21
-3.999999999999996
 31
10.1
  0
LINE
  5
1E1
330
13D
100
AcDbEntity
  8
Livello 01
100
AcDbLine
 10
-0.8679491924311967
 20
-3.0
 30
7.5
 11
-2.600000000000075
 21
-3.999999999999996
 31
7.5
  0
LINE
  5
1E2
330
13D
100
AcDbEntity
  8
Livello 01
100
AcDbLine
 10
-0.0000000000000728
 20
3.0
 30
8.367949192431126
 11
-0.0000000000000728
 21
3.0
 31
6.632050807568877
  0
LINE
  5
1E3
330
13D
100
AcDbEntity
  8
Livello 01
100
AcDbLine
 10
-0.8679491924311968
 20
3.0
 30
7.5
 11
0.8679491924310514
 21
3.0
 31
7.5
  0
CIRCLE
  5
1E4
330
13D
100
AcDbEntity
  8
Livello 01
100
AcDbCircle
 10
0.0000000000000728
 20
7.5
 30
3.354500185048139
 40
1.481961524227074
210
0.0
220
1.0
230
0.0
  0
LINE
  5
1E5
330
13D
100
AcDbEntity
  8
Livello 01
100
AcDbLine
 10
0.8679491924310522
 20
3.0
 30
7.5
 11
2.599999999999931
 21
3.999999999999996
 31
7.5
  0
LINE
  5
1E6
330
13D
100
AcDbEntity
  8
Livello 01
100
AcDbLine
 10
-0.0000000000000728
 20
3.0
 30
6.632050807568874
 11
-0.0000000000000728
 21
3.999999999999996
 31
4.899999999999996
  0
LINE
  5
1E7
330
13D
100
AcDbEntity
  8
Livello 01
100
AcDbLine
 10
-0.8679491924311978
 20
3.0
 30
7.5
 11
-2.600000000000077
 21
3.999999999999996
 31
7.5
  0
ENDBLK
  5
1E9
330
13D
100
AcDbEntity
  8
0
100
AcDbBlockEnd
  0
BLOCK
  5
206
330
1EB
100
AcDbEntity
  8
0
100
AcDbBlockBegin
  2
10SP04060YY
 70
     0
 10
0.0
 20
0.0
 30
0.0
  3
10SP04060YY
  1

  0
LINE
  5
1EC
330
1EB
100
AcDbEntity
  8
Livello 01
 62
     9
420
 12632256
100
AcDbLine
 10
-1.0
 20
0.0
 30
3.75
 11
-1.0
 21
0.0
 31
0.7999999999999973
  0
SPLINE
  5
1ED
330
1EB
100
AcDbEntity
  8
Livello 01
 62
     9
420
 12632256
100
AcDbSpline
210
1.0
220
-4.850927877942294E-16
230
-6.921666712271643E-15
 70
     8
 71
     3
 72
     9
 73
     5
 74
     0
 42
0.0000000001
 43
0.0000000001
 40
4.71238898038469
 40
4.71238898038469
 40
4.71238898038469
 40
4.71238898038469
 40
5.49778714378214
 40
6.283185307179591
 40
6.283185307179591
 40
6.283185307179591
 40
6.283185307179591
 10
0.0
 20
0.0
 30
4.0
 10
-0.0000000000000003
 20
-0.2622962548888256
 30
4.00043878192282
 10
-0.0000000000000008
 20
-0.7821878710830443
 30
3.945546967770761
 10
-0.0000000000000018
 20
-1.001755127691279
 30
3.81557406372221
 10
-0.0000000000000017
 20
-1.000000000000001
 30
3.749999999999999
  0
ARC
  5
1EE
330
1EB
100
AcDbEntity
  8
Livello 01
 62
     9
420
 12632256
100
AcDbCircle
 10
0.0
 20
0.0
 30
-3.75
 40
1.0
210
0.0
220
0.0
230
-1.0
100
AcDbArc
 50
270.0000000000001
 51
0.0000000000000057
  0
ARC
  5
1EF
330
1EB
100
AcDbEntity
  8
Livello 01
 62
     9
420
 12632256
100
AcDbCircle
 10
0.0
 20
0.0
 30
-3.75
 40
1.0
210
0.0
220
0.0
230
-1.0
100
AcDbArc
 50
0.0000000000000057
 51
270.0000000000001
  0
ARC
  5
1F0
330
1EB
100
AcDbEntity
  8
Livello 01
 62
     9
420
 12632256
100
AcDbCircle
 10
0.0
 20
0.0
 30
-0.8
 40
1.0
210
0.0
220
0.0
230
-1.0
100
AcDbArc
 50
180.0
 51
0.0
  0
ARC
  5
1F1
330
1EB
100
AcDbEntity
  8
Livello 01
 62
     9
420
 12632256
100
AcDbCircle
 10
0.0
 20
0.0
 30
0.0
 40
0.858938415433228
100
AcDbArc
 50
0.000000000000014
 51
180.0
  0
LINE
  5
1F2
330
1EB
100
AcDbEntity
  8
Livello 01
 62
     9
420
 12632256
100
AcDbLine
 10
0.8589384154332281
 20
0.0
 30
0.0000000000000007
 11
1.0
 21
0.0
 31
0.7999999999999998
  0
ARC
  5
1F3
330
1EB
100
AcDbEntity
  8
Livello 01
 62
     9
420
 12632256
100
AcDbCircle
 10
0.0
 20
0.0
 30
-0.8
 40
1.0
210
0.0
220
0.0
230
-1.0
100
AcDbArc
 50
0.0
 51
180.0
  0
ARC
  5
1F4
330
1EB
100
AcDbEntity
  8
Livello 01
 62
     9
420
 12632256
100
AcDbCircle
 10
0.0
 20
0.0
 30
0.0
 40
0.858938415433228
100
AcDbArc
 50
180.0
 51
0.0
  0
CIRCLE
  5
1F5
330
1EB
100
AcDbEntity
  8
Livello 01
 62
     9
420
 12632256
100
AcDbCircle
 10
0.0
 20
0.0
 30
-2.274999999999999
 40
1.0
210
0.0
220
0.0
230
-1.0
  0
LINE
  5
1F6
330
1EB
100
AcDbEntity
  8
Livello 01
 62
     9
420
 12632256
100
AcDbLine
 10
0.0
 20
1.0
 30
3.75
 11
0.0
 21
1.0
 31
0.7999999999999986
  0
LINE
  5
1F7
330
1EB
100
AcDbEntity
  8
Livello 01
 62
     9
420
 12632256
100
AcDbLine
 10
1.0
 20
0.0
 30
3.75
 11
1.0
 21
0.0
 31
0.7999999999999986
  0
LINE
  5
1F8
330
1EB
100
AcDbEntity
  8
Livello 01
 62
     9
420
 12632256
100
AcDbLine
 10
0.0
 20
-1.0
 30
3.75
 11
0.0
 21
-1.0
 31
0.7999999999999986
  0
LINE
  5
1F9
330
1EB
100
AcDbEntity
  8
Livello 01
 62
     9
420
 12632256
100
AcDbLine
 10
0.858938415433228
 20
0.0
 30
0.0
 11
-0.858938415433228
 21
0.0
 31
0.0
  0
LINE
  5
1FA
330
1EB
100
AcDbEntity
  8
Livello 01
 62
     9
420
 12632256
100
AcDbLine
 10
0.0
 20
-0.858938415433228
 30
0.0
 11
0.0
 21
0.858938415433228
 31
0.0
  0
SPLINE
  5
1FB
330
1EB
100
AcDbEntity
  8
Livello 01
 62
     9
420
 12632256
100
AcDbSpline
210
0.7071067811865485
220
-0.7071067811865466
230
-2.011113822417010E-15
 70
     8
 71
     3
 72
     9
 73
     5
 74
     0
 42
0.0000000001
 43
0.0000000001
 40
4.71238898038469
 40
4.71238898038469
 40
4.71238898038469
 40
4.71238898038469
 40
5.49778714378214
 40
6.283185307179591
 40
6.283185307179591
 40
6.283185307179591
 40
6.283185307179591
 10
0.0
 20
0.0
 30
4.0
 10
-0.1854714605117233
 20
-0.1854714605117236
 30
4.000438781922819
 10
-0.5530903478046885
 20
-0.5530903478046897
 30
3.94554696777076
 10
-0.708347843878898
 20
-0.7083478438788993
 30
3.815574063722208
 10
-0.7071067811865469
 20
-0.7071067811865481
 30
3.749999999999999
  0
SPLINE
  5
1FC
330
1EB
100
AcDbEntity
  8
Livello 01
 62
     9
420
 12632256
100
AcDbSpline
210
-4.553642616358990E-15
220
-1.0
230
2.460660678520339E-15
 70
     8
 71
     3
 72
     9
 73
     5
 74
     0
 42
0.0000000001
 43
0.0000000001
 40
4.71238898038469
 40
4.71238898038469
 40
4.71238898038469
 40
4.71238898038469
 40
5.49778714378214
 40
6.283185307179591
 40
6.283185307179591
 40
6.283185307179591
 40
6.283185307179591
 10
0.0
 20
0.0
 30
3.999999999999999
 10
-0.2622962548888257
 20
0.000000000000001
 30
4.000438781922819
 10
-0.7821878710830438
 20
0.0000000000000034
 30
3.94554696777076
 10
-1.001755127691279
 20
0.0000000000000041
 30
3.815574063722202
 10
-1.000000000000001
 20
0.0000000000000041
 30
3.749999999999999
  0
SPLINE
  5
1FD
330
1EB
100
AcDbEntity
  8
Livello 01
 62
     9
420
 12632256
100
AcDbSpline
210
-0.7071067811865467
220
-0.7071067811865483
230
5.723939340725295E-15
 70
     8
 71
     3
 72
     9
 73
     5
 74
     0
 42
0.0000000001
 43
0.0000000001
 40
4.71238898038469
 40
4.71238898038469
 40
4.71238898038469
 40
4.71238898038469
 40
5.49778714378214
 40
6.283185307179591
 40
6.283185307179591
 40
6.283185307179591
 40
6.283185307179591
 10
0.0
 20
0.0
 30
4.0
 10
-0.1854714605117242
 20
0.1854714605117228
 30
4.00043878192282
 10
-0.5530903478046905
 20
0.5530903478046887
 30
3.945546967770761
 10
-0.7083478438789006
 20
0.7083478438788974
 30
3.815574063722208
 10
-0.7071067811865495
 20
0.7071067811865461
 30
3.749999999999999
  0
SPLINE
  5
1FE
330
1EB
100
AcDbEntity
  8
Livello 01
 62
     9
420
 12632256
100
AcDbSpline
210
1.0
220
2.516131164192070E-16
230
1.065704652517116E-15
 70
     8
 71
     3
 72
     9
 73
     5
 74
     0
 42
0.0000000001
 43
0.0000000001
 40
4.71238898038469
 40
4.71238898038469
 40
4.71238898038469
 40
4.71238898038469
 40
5.49778714378214
 40
6.283185307179591
 40
6.283185307179591
 40
6.283185307179591
 40
6.283185307179591
 10
0.0
 20
0.0
 30
4.0
 10
0.0
 20
0.262296254888825
 30
4.00043878192282
 10
-0.0000000000000001
 20
0.7821878710830434
 30
3.945546967770761
 10
-0.0000000000000001
 20
1.00175512769128
 30
3.81557406372221
 10
-0.0000000000000001
 20
1.000000000000001
 30
3.75
  0
SPLINE
  5
1FF
330
1EB
100
AcDbEntity
  8
Livello 01
 62
     9
420
 12632256
100
AcDbSpline
210
0.707106781186547
220
-0.7071067811865482
230
3.094021265256965E-15
 70
     8
 71
     3
 72
     9
 73
     5
 74
     0
 42
0.0000000001
 43
0.0000000001
 40
4.71238898038469
 40
4.71238898038469
 40
4.71238898038469
 40
4.71238898038469
 40
5.49778714378214
 40
6.283185307179591
 40
6.283185307179591
 40
6.283185307179591
 40
6.283185307179591
 10
0.0
 20
0.0
 30
4.0
 10
0.1854714605117241
 20
0.1854714605117232
 30
4.000438781922821
 10
0.5530903478046898
 20
0.5530903478046886
 30
3.945546967770761
 10
0.7083478438789004
 20
0.7083478438788983
 30
3.81557406372221
 10
0.7071067811865491
 20
0.7071067811865471
 30
3.749999999999999
  0
SPLINE
  5
200
330
1EB
100
AcDbEntity
  8
Livello 01
 62
     9
420
 12632256
100
AcDbSpline
210
-1.464796130863297E-15
220
-1.0
230
6.219340798326000E-16
 70
     8
 71
     3
 72
     9
 73
     5
 74
     0
 42
0.0000000001
 43
0.0000000001
 40
4.71238898038469
 40
4.71238898038469
 40
4.71238898038469
 40
4.71238898038469
 40
5.49778714378214
 40
6.283185307179591
 40
6.283185307179591
 40
6.283185307179591
 40
6.283185307179591
 10
0.0
 20
0.0
 30
4.0
 10
0.2622962548888254
 20
-0.0000000000000004
 30
4.00043878192282
 10
0.782187871083044
 20
-0.0000000000000012
 30
3.945546967770761
 10
1.00175512769128
 20
-0.0000000000000016
 30
3.81557406372221
 10
1.000000000000002
 20
-0.0000000000000015
 30
3.75
  0
SPLINE
  5
201
330
1EB
100
AcDbEntity
  8
Livello 01
 62
     9
420
 12632256
100
AcDbSpline
210
-0.7071067811865457
220
-0.7071067811865495
230
1.856412759154179E-15
 70
     8
 71
     3
 72
     9
 73
     5
 74
     0
 42
0.0000000001
 43
0.0000000001
 40
4.71238898038469
 40
4.71238898038469
 40
4.71238898038469
 40
4.71238898038469
 40
5.49778714378214
 40
6.283185307179591
 40
6.283185307179591
 40
6.283185307179591
 40
6.283185307179591
 10
0.0
 20
0.0
 30
4.0
 10
0.1854714605117238
 20
-0.185471460511723
 30
4.00043878192282
 10
0.5530903478046906
 20
-0.5530903478046879
 30
3.945546967770761
 10
0.7083478438789
 20
-0.7083478438788969
 30
3.81557406372221
 10
0.7071067811865495
 20
-0.7071067811865457
 30
3.749999999999999
  0
SPLINE
  5
202
330
1EB
100
AcDbEntity
  8
Livello 01
 62
     9
420
 12632256
100
AcDbSpline
210
0.0
220
0.0
230
1.0
 70
    11
 71
     3
 72
    15
 73
    11
 74
     0
 42
0.0000000001
 43
0.0000000001
 40
0.0
 40
0.0
 40
0.0
 40
0.0
 40
0.785398163397448
 40
1.5707963267949
 40
2.35619449019234
 40
3.14159265358979
 40
3.92699081698724
 40
4.71238898038469
 40
5.49778714378214
 40
6.28318530717959
 40
6.28318530717959
 40
6.28318530717959
 40
6.28318530717959
 10
-0.0000000000000009
 20
-0.707106781186548
 30
3.926776695296637
 10
-0.1846990312590644
 20
-0.7071067811865485
 30
3.926776695296637
 10
-0.5540970937771936
 20
-0.5540970937771936
 30
3.926776695296637
 10
-0.783611624891225
 20
0.0
 30
3.926776695296635
 10
-0.554097093777193
 20
0.554097093777195
 30
3.926776695296637
 10
0.0
 20
0.7836116248912244
 30
3.926776695296637
 10
0.5540970937771948
 20
0.5540970937771936
 30
3.926776695296637
 10
0.7836116248912244
 20
-0.0000000000000025
 30
3.926776695296637
 10
0.5540970937771961
 20
-0.5540970937771909
 30
3.926776695296637
 10
0.1846990312590637
 20
-0.707106781186548
 30
3.926776695296637
 10
-0.0000000000000009
 20
-0.707106781186548
 30
3.926776695296637
  0
LINE
  5
203
330
1EB
100
AcDbEntity
  8
Livello 01
 62
     9
420
 12632256
100
AcDbLine
 10
0.0
 20
0.8589384154332281
 30
0.0000000000000004
 11
0.0
 21
1.0
 31
0.7999999999999996
  0
LINE
  5
204
330
1EB
100
AcDbEntity
  8
Livello 01
 62
     9
420
 12632256
100
AcDbLine
 10
-0.8589384154332281
 20
0.0
 30
0.0000000000000004
 11
-1.0
 21
0.0
 31
0.7999999999999996
  0
LINE
  5
205
330
1EB
100
AcDbEntity
  8
Livello 01
 62
     9
420
 12632256
100
AcDbLine
 10
0.0
 20
-0.8589384154332281
 30
0.0000000000000004
 11
0.0
 21
-1.0
 31
0.7999999999999996
  0
ENDBLK
  5
207
330
1EB
100
AcDbEntity
  8
0
100
AcDbBlockEnd
  0
BLOCK
  5
23E
330
209
100
AcDbEntity
  8
0
100
AcDbBlockBegin
  2
10VI23160YY
 70
     0
 10
0.0
 20
0.0
 30
0.0
  3
10VI23160YY
  1

  0
SPLINE
  5
20A
330
209
100
AcDbEntity
  8
Livello 01
100
AcDbSpline
210
0.0
220
0.0
230
1.0
 70
    24
 71
     2
 72
     6
 73
     3
 74
     0
 42
0.0000000001
 43
0.0000000001
 40
-6.0398675482166
 40
-6.0398675482166
 40
-6.0398675482166
 40
0.0
 40
0.0
 40
0.0
 10
-3.0199337741083
 20
-0.699999999999999
 30
18.7
 10
0.0
 20
-0.699999999999999
 30
18.7
 10
3.0199337741083
 20
-0.699999999999999
 30
18.7
  0
ARC
  5
20B
330
209
100
AcDbEntity
  8
Livello 01
100
AcDbCircle
 10
0.0
 20
0.0000000000000003
 30
-18.7
 40
3.1
210
0.0
220
0.0
230
-1.0
100
AcDbArc
 50
193.0503049396799
 51
346.9496950603201
  0
ARC
  5
20C
330
209
100
AcDbEntity
  8
Livello 01
100
AcDbCircle
 10
-0.0000000000015299
 20
0.000000000000323
 30
-18.39999999999974
 40
3.400000000001568
210
0.0
220
0.0
230
-1.0
100
AcDbArc
 50
191.8811560210107
 51
348.1188439789893
  0
CIRCLE
  5
20D
330
209
100
AcDbEntity
  8
Livello 01
100
AcDbCircle
 10
0.0
 20
0.0
 30
-16.0
 40
2.0
210
0.0
220
0.0
230
-1.0
  0
ARC
  5
20E
330
209
100
AcDbEntity
  8
Livello 01
100
AcDbCircle
 10
0.0
 20
0.0
 30
0.0
 40
2.0
210
0.0
220
0.0
230
-1.0
100
AcDbArc
 50
179.9999999999999
 51
359.9999999999999
  0
LINE
  5
20F
330
209
100
AcDbEntity
  8
Livello 01
100
AcDbLine
 10
-2.0
 20
0.0
 30
16.0
 11
-2.0
 21
0.0
 31
0.0000000000000036
  0
ARC
  5
210
330
209
100
AcDbEntity
  8
Livello 01
100
AcDbCircle
 10
0.0
 20
0.0
 30
0.0
 40
2.0
210
0.0
220
0.0
230
-1.0
100
AcDbArc
 50
359.9999999999999
 51
179.9999999999999
  0
SPLINE
  5
211
330
209
100
AcDbEntity
  8
Livello 01
100
AcDbSpline
210
0.0
220
0.0
230
1.0
 70
    24
 71
     2
 72
     6
 73
     3
 74
     0
 42
0.0000000001
 43
0.0000000001
 40
0.0
 40
0.0
 40
0.0
 40
0.8999999999999986
 40
0.8999999999999986
 40
0.8999999999999986
 10
-3.32716095192283
 20
-0.699999999999999
 30
18.4
 10
-3.32716095192283
 20
-0.699999999999999
 30
17.95
 10
-3.32716095192283
 20
-0.699999999999999
 30
17.5
  0
ARC
  5
212
330
209
100
AcDbEntity
  8
Livello 01
100
AcDbCircle
 10
0.0000000000000009
 20
-0.0000000000000242
 30
-17.5
 40
3.399999999999999
210
0.0
220
0.0
230
-1.0
100
AcDbArc
 50
348.1188439789897
 51
11.88115602101115
  0
SPLINE
  5
213
330
209
100
AcDbEntity
  8
Livello 01
100
AcDbSpline
210
0.0
220
0.0
230
1.0
 70
    24
 71
     2
 72
     6
 73
     3
 74
     0
 42
0.0000000001
 43
0.0000000001
 40
0.0
 40
0.0
 40
0.0
 40
0.8999999999999986
 40
0.8999999999999986
 40
0.8999999999999986
 10
-3.32716095192282
 20
0.700000000000001
 30
17.5
 10
-3.32716095192282
 20
0.700000000000001
 30
17.95
 10
-3.32716095192282
 20
0.700000000000001
 30
18.4
  0
ARC
  5
214
330
209
100
AcDbEntity
  8
Livello 01
100
AcDbCircle
 10
0.0
 20
0.0000000000000012
 30
-18.4
 40
3.399999999999995
210
0.0
220
0.0
230
-1.0
100
AcDbArc
 50
11.88115602101071
 51
90.0
  0
ARC
  5
215
330
209
100
AcDbEntity
  8
Livello 01
100
AcDbCircle
 10
0.0
 20
0.0000000000000012
 30
-18.4
 40
3.399999999999995
210
0.0
220
0.0
230
-1.0
100
AcDbArc
 50
90.0
 51
168.1188439789893
  0
SPLINE
  5
216
330
209
100
AcDbEntity
  8
Livello 01
100
AcDbSpline
210
0.0
220
0.0
230
1.0
 70
    24
 71
     2
 72
     6
 73
     3
 74
     0
 42
0.0000000001
 43
0.0000000001
 40
0.0
 40
0.0
 40
0.0
 40
0.8999999999999986
 40
0.8999999999999986
 40
0.8999999999999986
 10
3.32716095192282
 20
0.700000000000001
 30
18.4
 10
3.32716095192282
 20
0.700000000000001
 30
17.95
 10
3.32716095192282
 20
0.700000000000001
 30
17.5
  0
ARC
  5
217
330
209
100
AcDbEntity
  8
Livello 01
100
AcDbCircle
 10
0.0000000000000018
 20
-0.0000000000000233
 30
-17.5
 40
3.400000000000001
210
0.0
220
0.0
230
-1.0
100
AcDbArc
 50
168.1188439789889
 51
191.8811560210103
  0
SPLINE
  5
218
330
209
100
AcDbEntity
  8
Livello 01
100
AcDbSpline
210
0.0
220
0.0
230
1.0
 70
    24
 71
     2
 72
     6
 73
     3
 74
     0
 42
0.0000000001
 43
0.0000000001
 40
0.0
 40
0.0
 40
0.0
 40
0.8999999999995012
 40
0.8999999999995012
 40
0.8999999999995012
 10
3.32716095192283
 20
-0.699999999999999
 30
17.5
 10
3.32716095192436
 20
-0.699999999999999
 30
17.94999999999975
 10
3.32716095192589
 20
-0.699999999999999
 30
18.3999999999995
  0
CIRCLE
  5
219
330
209
100
AcDbEntity
  8
Livello 01
100
AcDbCircle
 10
0.0
 20
0.0
 30
16.0
 40
3.4
  0
LINE
  5
21A
330
209
100
AcDbEntity
  8
Livello 01
100
AcDbLine
 10
0.0
 20
3.4
 30
18.4
 11
0.0
 21
3.4
 31
16.0
  0
SPLINE
  5
21B
330
209
100
AcDbEntity
  8
Livello 01
100
AcDbSpline
210
0.0
220
0.0
230
1.0
 70
    24
 71
     2
 72
     6
 73
     3
 74
     0
 42
0.0000000001
 43
0.0000000001
 40
-6.0398675482166
 40
-6.0398675482166
 40
-6.0398675482166
 40
0.0
 40
0.0
 40
0.0
 10
3.0199337741083
 20
0.700000000000001
 30
18.7
 10
0.0
 20
0.700000000000001
 30
18.7
 10
-3.0199337741083
 20
0.700000000000001
 30
18.7
  0
ARC
  5
21C
330
209
100
AcDbEntity
  8
Livello 01
100
AcDbCircle
 10
0.0
 20
0.0
 30
-18.7
 40
3.100000000000001
210
0.0
220
0.0
230
-1.0
100
AcDbArc
 50
13.05030493967993
 51
166.9496950603201
  0
SPLINE
  5
21D
330
209
100
AcDbEntity
  8
Livello 01
100
AcDbSpline
210
0.0
220
1.0
230
0.0
 70
     8
 71
     3
 72
     8
 73
     4
 74
     0
 42
0.0000000001
 43
0.0000000001
 40
-0.5229759357499009
 40
-0.5229759357499009
 40
-0.5229759357499009
 40
-0.5229759357499009
 40
0.0
 40
0.0
 40
0.0
 40
0.0
 10
-3.0199337741083
 20
-0.699999999999999
 30
18.7
 10
-3.17905663327908
 20
-0.699999999999999
 30
18.7
 10
-3.32716095192283
 20
-0.699999999999999
 30
18.5601659092324
 10
-3.32716095192283
 20
-0.699999999999999
 30
18.4
  0
SPLINE
  5
21E
330
209
100
AcDbEntity
  8
Livello 01
100
AcDbSpline
210
0.0
220
-1.0
230
0.0
 70
     8
 71
     3
 72
     8
 73
     4
 74
     0
 42
0.0000000001
 43
0.0000000001
 40
-0.5226939084363306
 40
-0.5226939084363306
 40
-0.5226939084363306
 40
-0.5226939084363306
 40
0.0
 40
0.0
 40
0.0
 40
0.0
 10
3.32716095192589
 20
-0.699999999999999
 30
18.3999999999995
 10
3.327160951924322
 20
-0.699999999999999
 30
18.55861292313607
 10
3.1797833986827
 20
-0.699999999999999
 30
18.70000000000042
 10
3.0199337741083
 20
-0.699999999999999
 30
18.7
  0
SPLINE
  5
21F
330
209
100
AcDbEntity
  8
Livello 01
100
AcDbSpline
210
0.0
220
1.0
230
0.0
 70
     8
 71
     3
 72
     8
 73
     4
 74
     0
 42
0.0000000001
 43
0.0000000001
 40
-0.5227717636809465
 40
-0.5227717636809465
 40
-0.5227717636809465
 40
-0.5227717636809465
 40
0.0
 40
0.0
 40
0.0
 40
0.0
 10
3.0199337741083
 20
0.700000000000001
 30
18.7
 10
3.17841475061135
 20
0.700000000000001
 30
18.7
 10
3.32716095192282
 20
0.700000000000001
 30
18.5600722756835
 10
3.32716095192282
 20
0.700000000000001
 30
18.4
  0
SPLINE
  5
220
330
209
100
AcDbEntity
  8
Livello 01
100
AcDbSpline
210
0.0
220
1.0
230
0.0
 70
     8
 71
     3
 72
     8
 73
     4
 74
     0
 42
0.0000000001
 43
0.0000000001
 40
-0.5221171996071172
 40
-0.5221171996071172
 40
-0.5221171996071172
 40
-0.5221171996071172
 40
0.0
 40
0.0
 40
0.0
 40
0.0
 10
-3.32716095192282
 20
0.700000000000001
 30
18.4
 10
-3.327160951922833
 20
0.700000000000001
 30
18.5582193668151
 10
-3.178140397833213
 20
0.700000000000001
 30
18.69999999999999
 10
-3.0199337741083
 20
0.700000000000001
 30
18.7
  0
SPLINE
  5
221
330
209
100
AcDbEntity
  8
Livello 01
100
AcDbSpline
210
0.0
220
0.0
230
1.0
 70
    24
 71
     2
 72
     6
 73
     3
 74
     0
 42
0.0000000001
 43
0.0000000001
 40
0.0
 40
0.0
 40
0.0
 40
6.65432190384566
 40
6.65432190384566
 40
6.65432190384566
 10
-3.32716095192283
 20
-0.699999999999999
 30
17.5
 10
0.0
 20
-0.699999999999999
 30
17.5
 10
3.32716095192283
 20
-0.699999999999999
 30
17.5
  0
SPLINE
  5
222
330
209
100
AcDbEntity
  8
Livello 01
100
AcDbSpline
210
0.0
220
0.0
230
1.0
 70
    24
 71
     2
 72
     6
 73
     3
 74
     0
 42
0.0000000001
 43
0.0000000001
 40
0.0
 40
0.0
 40
0.0
 40
6.65432190384564
 40
6.65432190384564
 40
6.65432190384564
 10
3.32716095192282
 20
0.700000000000001
 30
17.5
 10
0.0
 20
0.700000000000001
 30
17.5
 10
-3.32716095192282
 20
0.700000000000001
 30
17.5
  0
LINE
  5
223
330
209
100
AcDbEntity
  8
Livello 01
100
AcDbLine
 10
2.449489742783179
 20
-1.899999999999999
 30
18.7
 11
-2.449489742783179
 21
-1.899999999999999
 31
18.7
  0
LINE
  5
224
330
209
100
AcDbEntity
  8
Livello 01
100
AcDbLine
 10
0.0
 20
-3.1
 30
18.7
 11
0.0
 21
-0.6999999999999992
 31
18.7
  0
ARC
  5
225
330
209
100
AcDbEntity
  8
Livello 01
100
AcDbCircle
 10
0.0
 20
0.0
 30
-18.7
 40
3.1
210
0.0
220
0.0
230
-1.0
100
AcDbArc
 50
193.0503049396799
 51
346.9496950603201
  0
ARC
  5
226
330
209
100
AcDbEntity
  8
Livello 01
100
AcDbCircle
 10
-3.1
 20
18.4
 30
0.0
 40
0.3
210
1.0
220
0.0
230
0.0
100
AcDbArc
 50
89.99999999999991
 51
180.0
  0
CIRCLE
  5
227
330
209
100
AcDbEntity
  8
Livello 01
100
AcDbCircle
 10
0.0
 20
0.0
 30
-8.0
 40
2.0
210
0.0
220
0.0
230
-1.0
  0
LINE
  5
228
330
209
100
AcDbEntity
  8
Livello 01
100
AcDbLine
 10
0.0
 20
2.0
 30
16.0
 11
0.0
 21
2.0
 31
0.0000000000000024
  0
LINE
  5
229
330
209
100
AcDbEntity
  8
Livello 01
100
AcDbLine
 10
2.0
 20
0.0
 30
16.0
 11
2.0
 21
0.0
 31
0.0000000000000024
  0
LINE
  5
22A
330
209
100
AcDbEntity
  8
Livello 01
100
AcDbLine
 10
0.0
 20
-2.0
 30
16.0
 11
0.0
 21
-2.0
 31
0.0000000000000024
  0
LINE
  5
22B
330
209
100
AcDbEntity
  8
Livello 01
100
AcDbLine
 10
2.0
 20
0.0
 30
0.0
 11
-2.0
 21
0.0
 31
0.0
  0
LINE
  5
22C
330
209
100
AcDbEntity
  8
Livello 01
100
AcDbLine
 10
0.0
 20
-2.0
 30
0.0
 11
0.0
 21
2.0
 31
0.0
  0
CIRCLE
  5
22D
330
209
100
AcDbEntity
  8
Livello 01
100
AcDbCircle
 10
0.0
 20
0.0
 30
-17.2
 40
3.4
210
0.0
220
0.0
230
-1.0
  0
LINE
  5
22E
330
209
100
AcDbEntity
  8
Livello 01
100
AcDbLine
 10
3.4
 20
0.0
 30
17.5
 11
3.4
 21
0.0
 31
16.0
  0
LINE
  5
22F
330
209
100
AcDbEntity
  8
Livello 01
100
AcDbLine
 10
0.0
 20
-3.4
 30
18.39999999999975
 11
0.0
 21
-3.4
 31
16.0
  0
LINE
  5
230
330
209
100
AcDbEntity
  8
Livello 01
100
AcDbLine
 10
-3.4
 20
0.0
 30
17.5
 11
-3.4
 21
0.0
 31
16.0
  0
LINE
  5
231
330
209
100
AcDbEntity
  8
Livello 01
100
AcDbLine
 10
2.449489742783178
 20
1.900000000000001
 30
18.7
 11
-2.449489742783179
 21
1.900000000000001
 31
18.7
  0
LINE
  5
232
330
209
100
AcDbEntity
  8
Livello 01
100
AcDbLine
 10
0.0
 20
0.7000000000000011
 30
18.7
 11
0.0
 21
3.100000000000001
 31
18.7
  0
LINE
  5
233
330
209
100
AcDbEntity
  8
Livello 01
100
AcDbLine
 10
3.4
 20
-0.0000000000000004
 30
16.0
 11
2.0
 21
-0.0000000000000004
 31
16.0
  0
LINE
  5
234
330
209
100
AcDbEntity
  8
Livello 01
100
AcDbLine
 10
-2.0
 20
-0.0000000000000004
 30
16.0
 11
-3.4
 21
-0.0000000000000004
 31
16.0
  0
LINE
  5
235
330
209
100
AcDbEntity
  8
Livello 01
100
AcDbLine
 10
-0.0000000000000004
 20
-3.4
 30
16.0
 11
-0.0000000000000004
 21
-2.0
 31
16.0
  0
LINE
  5
236
330
209
100
AcDbEntity
  8
Livello 01
100
AcDbLine
 10
-0.0000000000000004
 20
2.0
 30
16.0
 11
-0.0000000000000004
 21
3.4
 31
16.0
  0
ARC
  5
237
330
209
100
AcDbEntity
  8
Livello 01
100
AcDbCircle
 10
-3.1
 20
18.4
 30
0.0
 40
0.3
210
-1.0
220
0.0
230
0.0
100
AcDbArc
 50
90.00000000000009
 51
180.0
  0
LINE
  5
238
330
209
100
AcDbEntity
  8
Livello 01
100
AcDbLine
 10
-3.32716095192283
 20
-0.699999999999999
 30
18.10000000000021
 11
3.327160951924869
 21
-0.6999999999999993
 31
18.10000000000021
  0
LINE
  5
239
330
209
100
AcDbEntity
  8
Livello 01
100
AcDbLine
 10
0.0000000000015299
 20
-0.6999999999999992
 30
17.5
 11
0.0000000000015299
 21
-0.6999999999999992
 31
18.7
  0
LINE
  5
23A
330
209
100
AcDbEntity
  8
Livello 01
100
AcDbLine
 10
3.32716095192282
 20
0.700000000000001
 30
18.1
 11
-3.327160951922819
 21
0.7000000000000013
 31
18.1
  0
LINE
  5
23B
330
209
100
AcDbEntity
  8
Livello 01
100
AcDbLine
 10
-0.0000000000000062
 20
0.7000000000000012
 30
17.5
 11
-0.0000000000000062
 21
0.7000000000000012
 31
18.7
  0
LINE
  5
23C
330
209
100
AcDbEntity
  8
Livello 01
100
AcDbLine
 10
-3.4
 20
0.000000000000001
 30
17.5
 11
3.399999999999999
 21
0.000000000000001
 31
17.5
  0
LINE
  5
23D
330
209
100
AcDbEntity
  8
Livello 01
100
AcDbLine
 10
-0.0000000000000004
 20
-0.6999999999999991
 30
17.5
 11
-0.0000000000000004
 21
0.700000000000001
 31
17.5
  0
ENDBLK
  5
23F
330
209
100
AcDbEntity
  8
0
100
AcDbBlockEnd
  0
BLOCK
  5
269
330
241
100
AcDbEntity
  8
0
100
AcDbBlockBegin
  2
10AN0156000
 70
     0
 10
0.0
 20
0.0
 30
0.0
  3
10AN0156000
  1

  0
ARC
  5
242
330
241
100
AcDbEntity
  8
Livello 01
 62
     9
420
 12632256
100
AcDbCircle
 10
0.0000000000000817
 20
-0.0000000000000002
 30
-1.0
 40
2.050000000000082
210
0.0
220
0.0
230
-1.0
100
AcDbArc
 50
0.0
 51
173.531686883486
  0
ARC
  5
243
330
241
100
AcDbEntity
  8
Livello 01
 62
     9
420
 12632256
100
AcDbCircle
 10
0.0000000000000817
 20
-0.0000000000000002
 30
-1.0
 40
2.050000000000082
210
0.0
220
0.0
230
-1.0
100
AcDbArc
 50
184.8467148151738
 51
0.0
  0
ARC
  5
244
330
241
100
AcDbEntity
  8
Livello 01
 62
     9
420
 12632256
100
AcDbCircle
 10
-0.0000000000009823
 20
0.0000000000001203
 30
0.0000000000001708
 40
2.050000000000983
100
AcDbArc
 50
180.0000000000034
 51
338.5231934993682
  0
ARC
  5
245
330
241
100
AcDbEntity
  8
Livello 01
 62
     9
420
 12632256
100
AcDbCircle
 10
-0.0000000000009823
 20
0.0000000000001203
 30
0.0000000000001708
 40
2.050000000000983
100
AcDbArc
 50
350.2714476570998
 51
180.0000000000034
  0
LINE
  5
246
330
241
100
AcDbEntity
  8
Livello 01
 62
     9
420
 12632256
100
AcDbLine
 10
-2.05
 20
0.0
 30
0.9999999999999999
 11
-2.05
 21
0.0
 31
0.000000000000339
  0
ARC
  5
247
330
241
100
AcDbEntity
  8
Livello 01
 62
     9
420
 12632256
100
AcDbCircle
 10
0.0000000000005329
 20
-0.0000000000000371
 30
-1.0
 40
3.500000000000533
210
0.0
220
0.0
230
-1.0
100
AcDbArc
 50
182.8365643336145
 51
0.0000000000005639
  0
ARC
  5
248
330
241
100
AcDbEntity
  8
Livello 01
 62
     9
420
 12632256
100
AcDbCircle
 10
0.0000000000005329
 20
-0.0000000000000371
 30
-1.0
 40
3.500000000000533
210
0.0
220
0.0
230
-1.0
100
AcDbArc
 50
0.0000000000005639
 51
176.2167103646192
  0
ARC
  5
249
330
241
100
AcDbEntity
  8
Livello 01
 62
     9
420
 12632256
100
AcDbCircle
 10
-0.0000000000033822
 20
0.0000000000006866
 30
0.0000000000005332
 40
3.500000000003453
100
AcDbArc
 50
354.319888984068
 51
180.0000000000113
  0
ARC
  5
24A
330
241
100
AcDbEntity
  8
Livello 01
 62
     9
420
 12632256
100
AcDbCircle
 10
-0.0000000000033822
 20
0.0000000000006866
 30
0.0000000000005332
 40
3.500000000003453
100
AcDbArc
 50
180.0000000000113
 51
347.6170673141466
  0
LINE
  5
24B
330
241
100
AcDbEntity
  8
Livello 01
 62
     9
420
 12632256
100
AcDbLine
 10
-3.5
 20
0.0
 30
0.9999999999999999
 11
-3.5
 21
0.0
 31
0.000000000001054
  0
SPLINE
  5
24C
330
241
100
AcDbEntity
  8
Livello 01
 62
     9
420
 12632256
100
AcDbSpline
210
0.0
220
0.0
230
1.0
 70
    24
 71
     2
 72
     6
 73
     3
 74
     0
 42
0.0000000001
 43
0.0000000001
 40
-1.4554223065831
 40
-1.4554223065831
 40
-1.4554223065831
 40
0.0
 40
0.0
 40
0.0
 10
3.49237264143829
 20
0.230940107675849
 30
1.0
 10
2.76466148814674
 20
0.230940107675849
 30
1.0
 10
2.03695033485519
 20
0.230940107675849
 30
1.0
  0
SPLINE
  5
24D
330
241
100
AcDbEntity
  8
Livello 01
 62
     9
420
 12632256
100
AcDbSpline
210
0.0
220
0.0
230
1.0
 70
    24
 71
     2
 72
     6
 73
     3
 74
     0
 42
0.0000000001
 43
0.0000000001
 40
-1.45304183700816
 40
-1.45304183700816
 40
-1.45304183700816
 40
0.0
 40
0.0
 40
0.0
 10
2.04266982158155
 20
-0.173205080756889
 30
1.0
 10
2.76919074008563
 20
-0.173205080756889
 30
1.0
 10
3.49571165858971
 20
-0.173205080756889
 30
1.0
  0
SPLINE
  5
24E
330
241
100
AcDbEntity
  8
Livello 01
 62
     9
420
 12632256
100
AcDbSpline
210
0.0
220
0.0
230
1.0
 70
    24
 71
     2
 72
     6
 73
     3
 74
     0
 42
0.0000000001
 43
0.0000000001
 40
0.0
 40
0.0
 40
0.0
 40
1.46229521833595
 40
1.46229521833595
 40
1.46229521833595
 10
3.48281495345362
 20
-0.346410161513774
 30
0.0000000000000036
 10
2.751667344285645
 20
-0.346410161513775
 30
0.0000000000000018
 10
2.02051973511767
 20
-0.346410161513776
 30
0.0
  0
SPLINE
  5
24F
330
241
100
AcDbEntity
  8
Livello 01
 62
     9
420
 12632256
100
AcDbSpline
210
0.0
220
0.0
230
1.0
 70
    24
 71
     2
 72
     6
 73
     3
 74
     0
 42
0.0000000001
 43
0.0000000001
 40
0.0
 40
0.0
 40
0.0
 40
1.51091670422579
 40
1.51091670422579
 40
1.51091670422579
 10
1.90765999765859
 20
-0.750555349946513
 30
0.0000000000000036
 10
2.663118349771485
 20
-0.750555349946514
 30
0.0000000000000018
 10
3.41857670188438
 20
-0.750555349946515
 30
0.0
  0
SPLINE
  5
250
330
241
100
AcDbEntity
  8
Livello 01
 62
     9
420
 12632256
100
AcDbSpline
210
-3.349154933746247E-14
220
0.8660254037844405
230
-0.4999999999999967
 70
    12
 71
     2
 72
     6
 73
     3
 74
     0
 42
0.0000000001
 43
0.0000000001
 40
0.0
 40
0.0
 40
0.0
 40
1.165924231840572
 40
1.165924231840572
 40
1.165924231840572
 10
1.90765999765859
 20
-0.750555349946513
 30
0.0000000000000036
 41
0.8905566496968718
 10
2.017355479595989
 20
-0.4717462217045773
 30
0.4829115757290197
 41
0.918507389851339
 10
2.04266982158155
 20
-0.173205080756889
 30
1.0
 41
0.9675709696342103
  0
SPLINE
  5
251
330
241
100
AcDbEntity
  8
Livello 01
 62
     9
420
 12632256
100
AcDbSpline
210
-5.094474879296959E-14
220
0.8660254037844405
230
-0.4999999999999972
 70
    12
 71
     2
 72
     6
 73
     3
 74
     0
 42
0.0000000001
 43
0.0000000001
 40
-1.158309308757562
 40
-1.158309308757562
 40
-1.158309308757562
 40
0.0
 40
0.0
 40
0.0
 10
3.418576701884379
 20
-0.7505553499465148
 30
0.0
 41
0.9266212421873452
 10
3.481248854207458
 20
-0.4651006399056091
 30
0.4944220610506878
 41
0.9498263681254097
 10
3.49571165858971
 20
-0.173205080756889
 30
0.9999999999999999
 41
0.980401053425818
  0
SPLINE
  5
252
330
241
100
AcDbEntity
  8
Livello 01
 62
     9
420
 12632256
100
AcDbSpline
210
1.075404451739593E-14
220
0.8660254037844388
230
-0.4999999999999997
 70
    12
 71
     2
 72
     8
 73
     5
 74
     0
 42
0.0000000001
 43
0.0000000001
 40
0.0
 40
0.0
 40
0.0
 40
0.4622497965072764
 40
0.4622497965072764
 40
1.156331375576071
 40
1.156331375576071
 40
1.156331375576071
 10
2.03695033485519
 20
0.230940107675849
 30
1.0
 41
0.9578306074240659
 10
2.05
 20
0.1158387506444376
 30
0.8006386016014699
 41
0.9771294596488944
 10
2.05
 20
0.0
 30
0.600000000000002
 41
1.0
 10
2.05
 20
-0.1744594983723158
 30
0.297827284956171
 41
0.9659498028211174
 10
2.02051973511767
 20
-0.346410161513776
 30
0.0
 41
0.9398165928133119
  0
SPLINE
  5
253
330
241
100
AcDbEntity
  8
Livello 01
 62
     9
420
 12632256
100
AcDbSpline
210
1.342401377462949E-14
220
0.8660254037844388
230
-0.4999999999999997
 70
    12
 71
     2
 72
     8
 73
     5
 74
     0
 42
0.0000000001
 43
0.0000000001
 40
-1.155253651387721
 40
-1.155253651387721
 40
-1.155253651387721
 40
-0.6932473769033285
 40
-0.6932473769033285
 40
0.0
 40
0.0
 40
0.0
 10
3.492372641438291
 20
0.230940107675849
 30
1.0
 41
0.9742521389779337
 10
3.5
 20
0.1155960098687207
 30
0.8002181622448595
 41
0.9865042178211215
 10
3.5
 20
0.0
 30
0.600000000000002
 41
1.0
 10
3.5
 20
-0.173631346868007
 30
0.2992616854379985
 41
0.9798650447128123
 10
3.48281495345362
 20
-0.346410161513774
 30
0.0000000000000036
 41
0.9624984459349316
  0
ARC
  5
254
330
241
100
AcDbEntity
  8
Livello 01
 62
     9
420
 12632256
100
AcDbCircle
 10
0.0
 20
0.0
 30
-0.5
 40
2.05
210
0.0
220
0.0
230
-1.0
100
AcDbArc
 50
193.0187170853827
 51
0.0
  0
LINE
  5
255
330
241
100
AcDbEntity
  8
Livello 01
 62
     9
420
 12632256
100
AcDbLine
 10
0.0
 20
-2.05
 30
0.9999999999999999
 11
0.0
 21
-2.05
 31
0.0000000000001485
  0
ARC
  5
256
330
241
100
AcDbEntity
  8
Livello 01
 62
     9
420
 12632256
100
AcDbCircle
 10
0.0
 20
0.0
 30
-0.5
 40
2.05
210
0.0
220
0.0
230
-1.0
100
AcDbArc
 50
0.0
 51
181.6136325090593
  0
LINE
  5
257
330
241
100
AcDbEntity
  8
Livello 01
 62
     9
420
 12632256
100
AcDbLine
 10
0.0
 20
2.05
 30
0.9999999999999999
 11
0.0
 21
2.05
 31
0.0000000000001781
  0
LINE
  5
258
330
241
100
AcDbEntity
  8
Livello 01
 62
     9
420
 12632256
100
AcDbLine
 10
2.05
 20
0.0
 30
0.5999896396051584
 11
2.05
 21
0.0
 31
0.0000000000000173
  0
ARC
  5
259
330
241
100
AcDbEntity
  8
Livello 01
 62
     9
420
 12632256
100
AcDbCircle
 10
0.0
 20
0.0
 30
-0.5
 40
3.5
210
0.0
220
0.0
230
-1.0
100
AcDbArc
 50
0.0
 51
180.9451620005157
  0
LINE
  5
25A
330
241
100
AcDbEntity
  8
Livello 01
 62
     9
420
 12632256
100
AcDbLine
 10
0.0
 20
3.5
 30
0.9999999999999999
 11
0.0
 21
3.5
 31
0.0000000000005449
  0
LINE
  5
25B
330
241
100
AcDbEntity
  8
Livello 01
 62
     9
420
 12632256
100
AcDbLine
 10
3.5
 20
0.0
 30
0.599998742113097
 11
3.5
 21
0.0
 31
0.000000000000036
  0
ARC
  5
25C
330
241
100
AcDbEntity
  8
Livello 01
 62
     9
420
 12632256
100
AcDbCircle
 10
0.0
 20
0.0
 30
-0.5
 40
3.5
210
0.0
220
0.0
230
-1.0
100
AcDbArc
 50
187.5830632436935
 51
0.0
  0
LINE
  5
25D
330
241
100
AcDbEntity
  8
Livello 01
 62
     9
420
 12632256
100
AcDbLine
 10
0.0
 20
-3.5
 30
0.9999999999999999
 11
0.0
 21
-3.5
 31
0.0000000000004881
  0
LINE
  5
25E
330
241
100
AcDbEntity
  8
Livello 01
 62
     9
420
 12632256
100
AcDbLine
 10
-2.04981893841833
 20
0.0272455446305715
 30
1.0
 11
-3.499893952722743
 21
0.0272455446305715
 31
1.0
  0
LINE
  5
25F
330
241
100
AcDbEntity
  8
Livello 01
 62
     9
420
 12632256
100
AcDbLine
 10
-0.0161306295030852
 20
-3.499962828773449
 30
1.0
 11
-0.0161306295030852
 21
-2.049936536284032
 31
1.0
  0
LINE
  5
260
330
241
100
AcDbEntity
  8
Livello 01
 62
     9
420
 12632256
100
AcDbLine
 10
-0.0161306295030852
 20
2.049936536284031
 30
1.0
 11
-0.0161306295030852
 21
3.499962828773376
 31
1.0
  0
LINE
  5
261
330
241
100
AcDbEntity
  8
Livello 01
 62
     9
420
 12632256
100
AcDbLine
 10
3.499036969104823
 20
-0.0820992621046321
 30
0.0
 11
2.048355367401337
 21
-0.0820992621046321
 31
0.0
  0
LINE
  5
262
330
241
100
AcDbEntity
  8
Livello 01
 62
     9
420
 12632256
100
AcDbLine
 10
-2.048355367403299
 20
-0.0820992621046321
 30
0.0
 11
-3.499036969111586
 21
-0.0820992621046321
 31
0.0
  0
LINE
  5
263
330
241
100
AcDbEntity
  8
Livello 01
 62
     9
420
 12632256
100
AcDbLine
 10
-0.0854762385703633
 20
-3.498956103277062
 30
0.0
 11
-0.0854762385703633
 21
-2.048217227894437
 31
0.0
  0
LINE
  5
264
330
241
100
AcDbEntity
  8
Livello 01
 62
     9
420
 12632256
100
AcDbLine
 10
-0.0854762385703633
 20
2.048217227894677
 30
0.0
 11
-0.0854762385703633
 21
3.498956103278437
 31
0.0
  0
LINE
  5
265
330
241
100
AcDbEntity
  8
Livello 01
 62
     9
420
 12632256
100
AcDbLine
 10
2.701685828124155
 20
-0.7505553499465125
 30
0.0000000000000008
 11
2.701685828124155
 21
-0.173205080756888
 31
0.9999999999999992
  0
LINE
  5
266
330
241
100
AcDbEntity
  8
Livello 01
 62
     9
420
 12632256
100
AcDbLine
 10
1.997289830411859
 20
-0.4618802153517007
 30
0.4999999999999992
 11
3.469389955981711
 21
-0.4618802153517007
 31
0.4999999999999992
  0
LINE
  5
267
330
241
100
AcDbEntity
  8
Livello 01
 62
     9
420
 12632256
100
AcDbLine
 10
2.760259867558844
 20
0.2309401076758508
 30
0.999999999999999
 11
2.760259867558844
 21
-0.3464101615137735
 31
0.000000000000001
  0
LINE
  5
268
330
241
100
AcDbEntity
  8
Livello 01
 62
     9
420
 12632256
100
AcDbLine
 10
2.049186830590784
 20
-0.0577350269189619
 30
0.4999999999999989
 11
3.499523777125503
 21
-0.0577350269189619
 31
0.4999999999999989
  0
ENDBLK
  5
26A
330
241
100
AcDbEntity
  8
0
100
AcDbBlockEnd
  0
ENDSEC
  0
SECTION
  2
ENTITIES
  0
INSERT
  5
26E
330
1F
100
AcDbEntity
  8
Livello 01
100
AcDbBlockReference
  2
3305T550-A0
 10
0.0
 20
0.0
 30
0.0
  0
ENDSEC
  0
SECTION
  2
OBJECTS
  0
DICTIONARY
  5
C
330
0
100
AcDbDictionary
281
     1
  3
ACAD_DETAILVIEWSTYLE
350
2AA
  3
ACAD_GROUP
350
D
  3
ACAD_LAYOUT
350
1A
  3
ACAD_MATERIAL
350
43
  3
ACAD_MLEADERSTYLE
350
5B
  3
ACAD_MLINESTYLE
350
17
  3
ACAD_PLOTSETTINGS
350
19
  3
ACAD_PLOTSTYLENAME
350
E
  3
ACAD_SCALELIST
350
47
  3
ACAD_SECTIONVIEWSTYLE
350
2AB
  3
ACAD_TABLESTYLE
350
59
  3
ACAD_VISUALSTYLE
350
2A
  3
ACDB_RECOMPOSE_DATA
350
2A7
  3
AcDbVariableDictionary
350
26F
  0
SUN
  5
5D
330
29
100
AcDbSun
 90
        1
290
     0
 63
     7
421
 16777215
 40
1.0
291
     1
 91
  2455826
 92
 54000000
292
     0
 70
     2
 71
   256
280
     1
  0
DICTIONARY
  5
2AA
102
{ACAD_REACTORS
330
C
102
}
330
C
100
AcDbDictionary
281
     1
  0
DICTIONARY
  5
D
102
{ACAD_REACTORS
330
C
102
}
330
C
100
AcDbDictionary
281
     1
  0
DICTIONARY
  5
1A
102
{ACAD_REACTORS
330
C
102
}
330
C
100
AcDbDictionary
281
     1
  3
Layout1
350
1E
  3
Layout2
350
26
  3
Model
350
22
  0
DICTIONARY
  5
43
102
{ACAD_REACTORS
330
C
102
}
330
C
100
AcDbDictionary
281
     1
  3
ByBlock
350
45
  3
ByLayer
350
44
  3
Global
350
46
  0
DICTIONARY
  5
5B
102
{ACAD_REACTORS
330
C
102
}
330
C
100
AcDbDictionary
281
     1
  3
Standard
350
5C
  0
DICTIONARY
  5
17
102
{ACAD_REACTORS
330
C
102
}
330
C
100
AcDbDictionary
281
     1
  3
Standard
350
18
  0
DICTIONARY
  5
19
102
{ACAD_REACTORS
330
C
102
}
330
C
100
AcDbDictionary
281
     1
  0
ACDBDICTIONARYWDFLT
  5
E
102
{ACAD_REACTORS
330
C
102
}
330
C
100
AcDbDictionary
281
     1
  3
Normal
350
F
100
AcDbDictionaryWithDefault
340
F
  0
DICTIONARY
  5
47
102
{ACAD_REACTORS
330
C
102
}
330
C
100
AcDbDictionary
281
     1
  3
A0
350
48
  3
A1
350
49
  3
A2
350
4A
  3
A3
350
4B
  3
A4
350
4C
  3
A5
350
4D
  3
A6
350
4E
  3
A7
350
4F
  3
A8
350
50
  3
A9
350
51
  3
B1
350
52
  3
B2
350
53
  3
B3
350
54
  3
B4
350
55
  3
B5
350
56
  3
B6
350
57
  3
B7
350
58
  0
DICTIONARY
  5
2AB
102
{ACAD_REACTORS
330
C
102
}
330
C
100
AcDbDictionary
281
     1
  0
DICTIONARY
  5
59
102
{ACAD_REACTORS
330
C
102
}
330
C
100
AcDbDictionary
281
     1
  3
Standard
350
5A
  0
DICTIONARY
  5
2A
102
{ACAD_REACTORS
330
C
102
}
330
C
100
AcDbDictionary
281
     1
  3
2dWireframe
350
2F
  3
Basic
350
32
  3
Brighten
350
36
  3
ColorChange
350
3A
  3
Conceptual
350
34
  3
Dim
350
35
  3
EdgeColorOff
350
3D
  3
Facepattern
350
39
  3
Flat
350
2B
  3
FlatWithEdges
350
2C
  3
Gouraud
350
2D
  3
GouraudWithEdges
350
2E
  3
Hidden
350
31
  3
JitterOff
350
3B
  3
Linepattern
350
38
  3
OverhangOff
350
3C
  3
Realistic
350
33
  3
Shaded
350
42
  3
Shaded with edges
350
41
  3
Shades of Gray
350
3E
  3
Sketchy
350
3F
  3
Thicken
350
37
  3
Wireframe
350
30
  3
X-Ray
350
40
  0
XRECORD
  5
2A7
102
{ACAD_REACTORS
330
C
102
}
330
C
100
AcDbXrecord
280
     1
 90
        1
330
5A
  0
DICTIONARY
  5
26F
102
{ACAD_REACTORS
330
C
102
}
330
C
100
AcDbDictionary
281
     1
  3
CANNOSCALE
350
270
  3
CMLEADERSTYLE
350
2A9
  3
CTABLESTYLE
350
2A8
  3
XCLIPFRAME
350
271
  0
LAYOUT
  5
1E
102
{ACAD_REACTORS
330
1A
102
}
330
1A
100
AcDbPlotSettings
  1

  2
none_device
  4

  6

 40
0.0
 41
0.0
 42
0.0
 43
0.0
 44
0.0
 45
0.0
 46
0.0
 47
0.0
 48
0.0
 49
0.0
140
0.0
141
0.0
142
1.0
143
1.0
 70
   688
 72
     0
 73
     0
 74
     5
  7

 75
    16
 76
     0
 77
     2
 78
   300
147
1.0
148
0.0
149
0.0
100
AcDbLayout
  1
Layout1
 70
     1
 71
     1
 10
0.0
 20
0.0
 11
12.0
 21
9.0
 12
0.0
 22
0.0
 32
0.0
 14
1.000000000000000E+20
 24
1.000000000000000E+20
 34
1.000000000000000E+20
 15
-1.000000000000000E+20
 25
-1.000000000000000E+20
 35
-1.000000000000000E+20
146
0.0
 13
0.0
 23
0.0
 33
0.0
 16
1.0
 26
0.0
 36
0.0
 17
0.0
 27
1.0
 37
0.0
 76
     0
330
1B
  0
LAYOUT
  5
26
102
{ACAD_REACTORS
330
1A
102
}
330
1A
100
AcDbPlotSettings
  1

  2
none_device
  4

  6

 40
0.0
 41
0.0
 42
0.0
 43
0.0
 44
0.0
 45
0.0
 46
0.0
 47
0.0
 48
0.0
 49
0.0
140
0.0
141
0.0
142
1.0
143
1.0
 70
   688
 72
     0
 73
     0
 74
     5
  7

 75
    16
 76
     0
 77
     2
 78
   300
147
1.0
148
0.0
149
0.0
100
AcDbLayout
  1
Layout2
 70
     1
 71
     2
 10
0.0
 20
0.0
 11
0.0
 21
0.0
 12
0.0
 22
0.0
 32
0.0
 14
0.0
 24
0.0
 34
0.0
 15
0.0
 25
0.0
 35
0.0
146
0.0
 13
0.0
 23
0.0
 33
0.0
 16
1.0
 26
0.0
 36
0.0
 17
0.0
 27
1.0
 37
0.0
 76
     0
330
23
  0
LAYOUT
  5
22
102
{ACAD_REACTORS
330
1A
102
}
330
1A
100
AcDbPlotSettings
  1

  2
none_device
  4
Letter_(8.50_x_11.00_Inches)
  6

 40
6.35
 41
6.35
 42
6.35000508
 43
6.35000508
 44
215.9
 45
279.4
 46
0.0
 47
0.0
 48
0.0
 49
0.0
140
0.0
141
0.0
142
1.0
143
1.0
 70
  1712
 72
     0
 73
     0
 74
     0
  7

 75
     0
 76
     0
 77
     2
 78
   300
147
1.0
148
0.0
149
0.0
100
AcDbLayout
  1
Model
 70
     1
 71
     0
 10
0.0
 20
0.0
 11
12.0
 21
9.0
 12
0.0
 22
0.0
 32
0.0
 14
-82.50000000000007
 24
-32.50000000000006
 34
-0.0000000000000102
 15
-17.49999999999996
 25
32.50000000000006
 35
61.20000000000002
146
0.0
 13
0.0
 23
0.0
 33
0.0
 16
1.0
 26
0.0
 36
0.0
 17
0.0
 27
1.0
 37
0.0
 76
     0
330
1F
331
29
  0
MATERIAL
  5
45
102
{ACAD_REACTORS
330
43
102
}
330
43
100
AcDbMaterial
  1
ByBlock
 72
     1
 94
      127
  0
MATERIAL
  5
44
102
{ACAD_REACTORS
330
43
102
}
330
43
100
AcDbMaterial
  1
ByLayer
 72
     1
 94
      127
  0
MATERIAL
  5
46
102
{ACAD_REACTORS
330
43
102
}
330
43
100
AcDbMaterial
  1
Global
 72
     1
 94
      127
  0
MLEADERSTYLE
  5
5C
102
{ACAD_REACTORS
330
5B
102
}
102
{ACAD_XDICTIONARY
360
2A5
102
}
330
5B
100
AcDbMLeaderStyle
170
     2
171
     1
172
     0
 90
        2
 40
0.0
 41
0.0
173
     1
 91
-1056964608
340
14
 92
       -2
290
     1
 42
0.09
291
     1
 43
0.36
  3
Standard
341
0
 44
0.18
300

342
11
174
     1
178
     6
175
     1
176
     0
 93
-1056964608
 45
0.18
292
     0
297
     0
 46
0.18
343
0
 94
-1056964608
 47
1.0
 49
1.0
140
1.0
293
     1
141
0.0
294
     1
177
     0
142
1.0
295
     0
296
     0
143
0.125
1001
ACAD_MLEADERVER
1070
     2
  0
MLINESTYLE
  5
18
102
{ACAD_REACTORS
330
17
102
}
330
17
100
AcDbMlineStyle
  2
Standard
 70
     0
  3

 62
   256
 51
90.0
 52
90.0
 71
     2
 49
0.5
 62
   256
  6
BYLAYER
 49
-0.5
 62
   256
  6
BYLAYER
  0
ACDBPLACEHOLDER
  5
F
102
{ACAD_REACTORS
330
E
102
}
330
E
  0
SCALE
  5
48
102
{ACAD_REACTORS
330
47
102
}
330
47
100
AcDbScale
 70
     0
300
1:1
140
1.0
141
1.0
290
     1
  0
SCALE
  5
49
102
{ACAD_REACTORS
330
47
102
}
330
47
100
AcDbScale
 70
     0
300
1/128" = 1'-0"
140
0.0078125
141
12.0
290
     0
  0
SCALE
  5
4A
102
{ACAD_REACTORS
330
47
102
}
330
47
100
AcDbScale
 70
     0
300
1/64" = 1'-0"
140
0.015625
141
12.0
290
     0
  0
SCALE
  5
4B
102
{ACAD_REACTORS
330
47
102
}
330
47
100
AcDbScale
 70
     0
300
1/32" = 1'-0"
140
0.03125
141
12.0
290
     0
  0
SCALE
  5
4C
102
{ACAD_REACTORS
330
47
102
}
330
47
100
AcDbScale
 70
     0
300
1/16" = 1'-0"
140
0.0625
141
12.0
290
     0
  0
SCALE
  5
4D
102
{ACAD_REACTORS
330
47
102
}
330
47
100
AcDbScale
 70
     0
300
3/32" = 1'-0"
140
0.09375
141
12.0
290
     0
  0
SCALE
  5
4E
102
{ACAD_REACTORS
330
47
102
}
330
47
100
AcDbScale
 70
     0
300
1/8" = 1'-0"
140
0.125
141
12.0
290
     0
  0
SCALE
  5
4F
102
{ACAD_REACTORS
330
47
102
}
330
47
100
AcDbScale
 70
     0
300
3/16" = 1'-0"
140
0.1875
141
12.0
290
     0
  0
SCALE
  5
50
102
{ACAD_REACTORS
330
47
102
}
330
47
100
AcDbScale
 70
     0
300
1/4" = 1'-0"
140
0.25
141
12.0
290
     0
  0
SCALE
  5
51
102
{ACAD_REACTORS
330
47
102
}
330
47
100
AcDbScale
 70
     0
300
3/8" = 1'-0"
140
0.375
141
12.0
290
     0
  0
SCALE
  5
52
102
{ACAD_REACTORS
330
47
102
}
330
47
100
AcDbScale
 70
     0
300
1/2" = 1'-0"
140
0.5
141
12.0
290
     0
  0
SCALE
  5
53
102
{ACAD_REACTORS
330
47
102
}
330
47
100
AcDbScale
 70
     0
300
3/4" = 1'-0"
140
0.75
141
12.0
290
     0
  0
SCALE
  5
54
102
{ACAD_REACTORS
330
47
102
}
330
47
100
AcDbScale
 70
     0
300
1" = 1'-0"
140
1.0
141
12.0
290
     0
  0
SCALE
  5
55
102
{ACAD_REACTORS
330
47
102
}
330
47
100
AcDbScale
 70
     0
300
1-1/2" = 1'-0"
140
1.5
141
12.0
290
     0
  0
SCALE
  5
56
102
{ACAD_REACTORS
330
47
102
}
330
47
100
AcDbScale
 70
     0
300
3" = 1'-0"
140
3.0
141
12.0
290
     0
  0
SCALE
  5
57
102
{ACAD_REACTORS
330
47
102
}
330
47
100
AcDbScale
 70
     0
300
6" = 1'-0"
140
6.0
141
12.0
290
     0
  0
SCALE
  5
58
102
{ACAD_REACTORS
330
47
102
}
330
47
100
AcDbScale
 70
     0
300
1'-0" = 1'-0"
140
12.0
141
12.0
290
     0
  0
TABLESTYLE
  5
5A
102
{ACAD_REACTORS
330
59
102
}
102
{ACAD_XDICTIONARY
360
2A2
102
}
330
59
100
AcDbTableStyle
  3
Standard
 70
     0
 71
     0
 40
0.06
 41
0.06
280
     0
281
     0
  7
Standard
140
0.18
170
     2
 62
     0
 63
   257
283
     0
 90
        4
 91
        0
  1

274
    -2
284
     1
 64
     0
275
    -2
285
     1
 65
     0
276
    -2
286
     1
 66
     0
277
    -2
287
     1
 67
     0
278
    -2
288
     1
 68
     0
279
    -2
289
     1
 69
     0
  7
Standard
140
0.25
170
     5
 62
     0
 63
   257
283
     0
 90
        4
 91
        0
  1

274
    -2
284
     1
 64
     0
275
    -2
285
     1
 65
     0
276
    -2
286
     1
 66
     0
277
    -2
287
     1
 67
     0
278
    -2
288
     1
 68
     0
279
    -2
289
     1
 69
     0
  7
Standard
140
0.18
170
     5
 62
     0
 63
   257
283
     0
 90
        4
 91
        0
  1

274
    -2
284
     1
 64
     0
275
    -2
285
     1
 65
     0
276
    -2
286
     1
 66
     0
277
    -2
287
     1
 67
     0
278
    -2
288
     1
 68
     0
279
    -2
289
     1
 69
     0
  0
VISUALSTYLE
  5
2F
102
{ACAD_REACTORS
330
2A
102
}
102
{ACAD_XDICTIONARY
360
27A
102
}
330
2A
100
AcDbVisualStyle
  2
2dWireframe
 70
     4
 71
     0
 72
     2
 73
     0
 90
        0
 40
0.6
 41
30.0
 62
     5
 63
     7
421
 16777215
 74
     1
 91
        4
 64
     7
 65
   257
 75
     1
175
     1
 42
1.0
 92
        0
 66
   257
 43
1.0
 76
     1
 77
     6
 78
     2
 67
     7
 79
     5
170
     0
171
     0
290
     0
174
     0
 93
        1
 44
0.0
173
     0
291
     0
 45
0.0
  0
VISUALSTYLE
  5
32
102
{ACAD_REACTORS
330
2A
102
}
102
{ACAD_XDICTIONARY
360
280
102
}
330
2A
100
AcDbVisualStyle
  2
Basic
 70
     7
 71
     1
 72
     0
 73
     1
 90
        0
 40
0.6
 41
30.0
 62
     5
 63
     7
421
 16777215
 74
     0
 91
        4
 64
     7
 65
   257
 75
     1
175
     1
 42
1.0
 92
        8
 66
     7
 43
1.0
 76
     1
 77
     6
 78
     2
 67
     7
 79
     5
170
     0
171
     0
290
     0
174
     0
 93
        1
 44
0.0
173
     0
291
     1
 45
0.0
  0
VISUALSTYLE
  5
36
102
{ACAD_REACTORS
330
2A
102
}
102
{ACAD_XDICTIONARY
360
288
102
}
330
2A
100
AcDbVisualStyle
  2
Brighten
 70
    12
 71
     2
 72
     2
 73
     0
 90
        0
 40
0.6
 41
30.0
 62
     5
 63
     7
421
 16777215
 74
     1
 91
        4
 64
     7
 65
   257
 75
     1
175
     1
 42
1.0
 92
        8
 66
     7
 43
1.0
 76
     1
 77
     6
 78
     2
 67
     7
 79
     5
170
     0
171
     0
290
     0
174
     0
 93
        1
 44
50.0
173
     0
291
     1
 45
0.0
  0
VISUALSTYLE
  5
3A
102
{ACAD_REACTORS
330
2A
102
}
102
{ACAD_XDICTIONARY
360
290
102
}
330
2A
100
AcDbVisualStyle
  2
ColorChange
 70
    16
 71
     2
 72
     2
 73
     3
 90
        0
 40
0.6
 41
30.0
 62
     5
 63
     8
421
  8421504
 74
     1
 91
        4
 64
     7
 65
   257
 75
     1
175
     1
 42
1.0
 92
        8
 66
     8
424
  8421504
 43
1.0
 76
     1
 77
     6
 78
     2
 67
     7
 79
     5
170
     0
171
     0
290
     0
174
     0
 93
        1
 44
0.0
173
     0
291
     1
 45
0.0
  0
VISUALSTYLE
  5
34
102
{ACAD_REACTORS
330
2A
102
}
102
{ACAD_XDICTIONARY
360
284
102
}
330
2A
100
AcDbVisualStyle
  2
Conceptual
 70
     9
 71
     3
 72
     2
 73
     0
 90
        0
 40
0.6
 41
30.0
 62
     5
 63
     7
421
 16777215
 74
     2
 91
        2
 64
     7
 65
   257
 75
     1
175
     1
 42
179.0
 92
        8
 66
     7
 43
1.0
 76
     1
 77
     6
 78
     2
 67
     7
 79
     3
170
     0
171
     0
290
     0
174
     0
 93
        1
 44
0.0
173
     0
291
     0
 45
0.0
  0
VISUALSTYLE
  5
35
102
{ACAD_REACTORS
330
2A
102
}
102
{ACAD_XDICTIONARY
360
286
102
}
330
2A
100
AcDbVisualStyle
  2
Dim
 70
    11
 71
     2
 72
     2
 73
     0
 90
        0
 40
0.6
 41
30.0
 62
     5
 63
     7
421
 16777215
 74
     1
 91
        4
 64
     7
 65
   257
 75
     1
175
     1
 42
1.0
 92
        8
 66
     7
 43
1.0
 76
     1
 77
     6
 78
     2
 67
     7
 79
     5
170
     0
171
     0
290
     0
174
     0
 93
        1
 44
-50.0
173
     0
291
     1
 45
0.0
  0
VISUALSTYLE
  5
3D
102
{ACAD_REACTORS
330
2A
102
}
102
{ACAD_XDICTIONARY
360
296
102
}
330
2A
100
AcDbVisualStyle
  2
EdgeColorOff
 70
    22
 71
     2
 72
     2
 73
     0
 90
        0
 40
0.6
 41
30.0
 62
     5
 63
     7
421
 16777215
 74
     1
 91
        4
 64
     7
 65
   257
 75
     1
175
     1
 42
1.0
 92
        8
 66
     7
 43
1.0
 76
     1
 77
     6
 78
     2
 67
     7
 79
     5
170
     0
171
     0
290
     0
174
     0
 93
        1
 44
0.0
173
     0
291
     1
 45
0.0
  0
VISUALSTYLE
  5
39
102
{ACAD_REACTORS
330
2A
102
}
102
{ACAD_XDICTIONARY
360
28E
102
}
330
2A
100
AcDbVisualStyle
  2
Facepattern
 70
    15
 71
     2
 72
     2
 73
     0
 90
        0
 40
0.6
 41
30.0
 62
     5
 63
     7
421
 16777215
 74
     1
 91
        4
 64
     7
 65
   257
 75
     1
175
     1
 42
1.0
 92
        8
 66
     7
 43
1.0
 76
     1
 77
     6
 78
     2
 67
     7
 79
     5
170
     0
171
     0
290
     0
174
     0
 93
        1
 44
0.0
173
     0
291
     1
 45
0.0
  0
VISUALSTYLE
  5
2B
102
{ACAD_REACTORS
330
2A
102
}
102
{ACAD_XDICTIONARY
360
272
102
}
330
2A
100
AcDbVisualStyle
  2
Flat
 70
     0
 71
     2
 72
     1
 73
     1
 90
        2
 40
0.6
 41
30.0
 62
     5
 63
     7
421
 16777215
 74
     0
 91
        0
 64
     7
 65
   257
 75
     1
175
     1
 42
1.0
 92
        8
 66
     7
 43
1.0
 76
     1
 77
     6
 78
     2
 67
     7
 79
     5
170
     0
171
     0
290
     0
174
     0
 93
       13
 44
0.0
173
     0
291
     1
 45
0.0
  0
VISUALSTYLE
  5
2C
102
{ACAD_REACTORS
330
2A
102
}
102
{ACAD_XDICTIONARY
360
274
102
}
330
2A
100
AcDbVisualStyle
  2
FlatWithEdges
 70
     1
 71
     2
 72
     1
 73
     1
 90
        2
 40
0.6
 41
30.0
 62
     5
 63
     7
421
 16777215
 74
     1
 91
        0
 64
     7
 65
   257
 75
     1
175
     1
 42
1.0
 92
        0
 66
   257
 43
1.0
 76
     1
 77
     6
 78
     2
 67
     7
 79
     5
170
     0
171
     0
290
     0
174
     0
 93
       13
 44
0.0
173
     0
291
     1
 45
0.0
  0
VISUALSTYLE
  5
2D
102
{ACAD_REACTORS
330
2A
102
}
102
{ACAD_XDICTIONARY
360
276
102
}
330
2A
100
AcDbVisualStyle
  2
Gouraud
 70
     2
 71
     2
 72
     2
 73
     1
 90
        2
 40
0.6
 41
30.0
 62
     5
 63
     7
421
 16777215
 74
     0
 91
        0
 64
     7
 65
   257
 75
     1
175
     1
 42
1.0
 92
        0
 66
     7
 43
1.0
 76
     1
 77
     6
 78
     2
 67
     7
 79
     5
170
     0
171
     0
290
     0
174
     0
 93
       13
 44
0.0
173
     0
291
     1
 45
0.0
  0
VISUALSTYLE
  5
2E
102
{ACAD_REACTORS
330
2A
102
}
102
{ACAD_XDICTIONARY
360
278
102
}
330
2A
100
AcDbVisualStyle
  2
GouraudWithEdges
 70
     3
 71
     2
 72
     2
 73
     1
 90
        2
 40
0.6
 41
30.0
 62
     5
 63
     7
421
 16777215
 74
     1
 91
        0
 64
     7
 65
   257
 75
     1
175
     1
 42
1.0
 92
        0
 66
   257
 43
1.0
 76
     1
 77
     6
 78
     2
 67
     7
 79
     5
170
     0
171
     0
290
     0
174
     0
 93
       13
 44
0.0
173
     0
291
     1
 45
0.0
  0
VISUALSTYLE
  5
31
102
{ACAD_REACTORS
330
2A
102
}
102
{ACAD_XDICTIONARY
360
27E
102
}
330
2A
100
AcDbVisualStyle
  2
Hidden
 70
     6
 71
     1
 72
     2
 73
     2
 90
        0
 40
0.6
 41
30.0
 62
     5
 63
     7
421
 16777215
 74
     2
 91
        2
 64
     7
 65
   257
 75
     2
175
     1
 42
40.0
 92
        0
 66
   257
 43
1.0
 76
     1
 77
     6
 78
     2
 67
     7
 79
     3
170
     0
171
     0
290
     0
174
     0
 93
        1
 44
0.0
173
     0
291
     0
 45
0.0
  0
VISUALSTYLE
  5
3B
102
{ACAD_REACTORS
330
2A
102
}
102
{ACAD_XDICTIONARY
360
292
102
}
330
2A
100
AcDbVisualStyle
  2
JitterOff
 70
    20
 71
     2
 72
     2
 73
     0
 90
        0
 40
0.6
 41
30.0
 62
     5
 63
     7
421
 16777215
 74
     1
 91
        4
 64
     7
 65
   257
 75
     1
175
     1
 42
1.0
 92
       10
 66
     7
 43
1.0
 76
     1
 77
     6
 78
     2
 67
     7
 79
     5
170
     0
171
     0
290
     0
174
     0
 93
        1
 44
0.0
173
     0
291
     1
 45
0.0
  0
VISUALSTYLE
  5
38
102
{ACAD_REACTORS
330
2A
102
}
102
{ACAD_XDICTIONARY
360
28C
102
}
330
2A
100
AcDbVisualStyle
  2
Linepattern
 70
    14
 71
     2
 72
     2
 73
     0
 90
        0
 40
0.6
 41
30.0
 62
     5
 63
     7
421
 16777215
 74
     1
 91
        4
 64
     7
 65
   257
 75
     7
175
     7
 42
1.0
 92
        8
 66
     7
 43
1.0
 76
     1
 77
     6
 78
     2
 67
     7
 79
     5
170
     0
171
     0
290
     0
174
     0
 93
        1
 44
0.0
173
     0
291
     1
 45
0.0
  0
VISUALSTYLE
  5
3C
102
{ACAD_REACTORS
330
2A
102
}
102
{ACAD_XDICTIONARY
360
294
102
}
330
2A
100
AcDbVisualStyle
  2
OverhangOff
 70
    21
 71
     2
 72
     2
 73
     0
 90
        0
 40
0.6
 41
30.0
 62
     5
 63
     7
421
 16777215
 74
     1
 91
        4
 64
     7
 65
   257
 75
     1
175
     1
 42
1.0
 92
        9
 66
     7
 43
1.0
 76
     1
 77
     6
 78
     2
 67
     7
 79
     5
170
     0
171
     0
290
     0
174
     0
 93
        1
 44
0.0
173
     0
291
     1
 45
0.0
  0
VISUALSTYLE
  5
33
102
{ACAD_REACTORS
330
2A
102
}
102
{ACAD_XDICTIONARY
360
282
102
}
330
2A
100
AcDbVisualStyle
  2
Realistic
 70
     8
 71
     2
 72
     3
 73
     0
 90
        2
 40
0.6
 41
30.0
 62
     5
 63
     7
421
 16777215
 74
     0
 91
        0
 64
     7
 65
   257
 75
     1
175
     1
 42
1.0
 92
        8
 66
   257
 43
1.0
 76
     1
 77
     6
 78
     2
 67
     7
 79
     3
170
     0
171
     0
290
     0
174
     0
 93
       13
 44
0.0
173
     0
291
     0
 45
0.0
  0
VISUALSTYLE
  5
42
102
{ACAD_REACTORS
330
2A
102
}
102
{ACAD_XDICTIONARY
360
2A0
102
}
330
2A
100
AcDbVisualStyle
  2
Shaded
 70
    27
 71
     2
 72
     2
 73
     1
 90
        2
 40
0.6
 41
30.0
 62
     5
 63
     7
421
 16777215
 74
     0
 91
        4
 64
     7
 65
   257
 75
     1
175
     1
 42
1.0
 92
        8
 66
   257
 43
1.0
 76
     1
 77
     6
 78
     2
 67
     8
425
  7895160
 79
     3
170
     0
171
     0
290
     0
174
     0
 93
        5
 44
0.0
173
     0
291
     0
 45
0.0
  0
VISUALSTYLE
  5
41
102
{ACAD_REACTORS
330
2A
102
}
102
{ACAD_XDICTIONARY
360
29E
102
}
330
2A
100
AcDbVisualStyle
  2
Shaded with edges
 70
    26
 71
     2
 72
     2
 73
     1
 90
        2
 40
0.6
 41
30.0
 62
     5
 63
     7
421
 16777215
 74
     1
 91
       10
 64
     7
 65
   257
 75
     2
175
     1
 42
1.0
 92
        8
 66
   257
 43
1.0
 76
     1
 77
     6
 78
     2
 67
     7
 79
     3
170
     0
171
     0
290
     0
174
     0
 93
        5
 44
0.0
173
     0
291
     0
 45
0.0
  0
VISUALSTYLE
  5
3E
102
{ACAD_REACTORS
330
2A
102
}
102
{ACAD_XDICTIONARY
360
298
102
}
330
2A
100
AcDbVisualStyle
  2
Shades of Gray
 70
    23
 71
     2
 72
     2
 73
     3
 90
        0
 40
0.6
 41
30.0
 62
     5
 63
     7
421
 16777215
 74
     2
 91
        2
 64
     7
 65
     7
 75
     1
175
     1
 42
40.0
 92
        8
 66
     7
 43
1.0
 76
     1
 77
     6
 78
     2
 67
     7
 79
     3
170
     0
171
     0
290
     0
174
     0
 93
        1
 44
0.0
173
     0
291
     0
 45
0.0
  0
VISUALSTYLE
  5
3F
102
{ACAD_REACTORS
330
2A
102
}
102
{ACAD_XDICTIONARY
360
29A
102
}
330
2A
100
AcDbVisualStyle
  2
Sketchy
 70
    24
 71
     1
 72
     2
 73
     2
 90
        0
 40
0.6
 41
30.0
 62
     5
 63
     7
421
 16777215
 74
     2
 91
        2
 64
     7
 65
     7
 75
     1
175
     1
 42
40.0
 92
       11
 66
     7
 43
1.0
 76
     1
 77
     6
 78
     2
 67
     7
 79
     6
170
     0
171
     0
290
     0
174
     0
 93
        1
 44
0.0
173
     0
291
     0
 45
0.0
  0
VISUALSTYLE
  5
37
102
{ACAD_REACTORS
330
2A
102
}
102
{ACAD_XDICTIONARY
360
28A
102
}
330
2A
100
AcDbVisualStyle
  2
Thicken
 70
    13
 71
     2
 72
     2
 73
     0
 90
        0
 40
0.6
 41
30.0
 62
     5
 63
     7
421
 16777215
 74
     1
 91
        4
 64
     7
 65
   257
 75
     1
175
     1
 42
1.0
 92
       12
 66
     7
 43
1.0
 76
     1
 77
     6
 78
     2
 67
     7
 79
     5
170
     0
171
     0
290
     0
174
     0
 93
        1
 44
0.0
173
     0
291
     1
 45
0.0
  0
VISUALSTYLE
  5
30
102
{ACAD_REACTORS
330
2A
102
}
102
{ACAD_XDICTIONARY
360
27C
102
}
330
2A
100
AcDbVisualStyle
  2
Wireframe
 70
     5
 71
     0
 72
     2
 73
     0
 90
        0
 40
0.6
 41
30.0
 62
     5
 63
     7
421
 16777215
 74
     1
 91
        4
 64
     7
 65
   257
 75
     1
175
     1
 42
1.0
 92
        0
 66
   257
 43
1.0
 76
     1
 77
     6
 78
     2
 67
     7
 79
     3
170
     0
171
     0
290
     0
174
     0
 93
        1
 44
0.0
173
     0
291
     0
 45
0.0
  0
VISUALSTYLE
  5
40
102
{ACAD_REACTORS
330
2A
102
}
102
{ACAD_XDICTIONARY
360
29C
102
}
330
2A
100
AcDbVisualStyle
  2
X-Ray
 70
    25
 71
     2
 72
     2
 73
     1
 90
        1
 40
0.5
 41
30.0
 62
     5
 63
     7
421
 16777215
 74
     1
 91
        0
 64
     7
 65
   257
 75
     1
175
     1
 42
1.0
 92
        8
 66
     7
 43
1.0
 76
     1
 77
     6
 78
     2
 67
     7
 79
     3
170
     0
171
     0
290
     0
174
     0
 93
       13
 44
0.0
173
     0
291
     0
 45
0.0
  0
DICTIONARYVAR
  5
270
102
{ACAD_REACTORS
330
26F
102
}
330
26F
100
DictionaryVariables
280
     0
  1
1:1
  0
DICTIONARYVAR
  5
2A9
102
{ACAD_REACTORS
330
26F
102
}
330
26F
100
DictionaryVariables
280
     0
  1
Standard
  0
DICTIONARYVAR
  5
2A8
102
{ACAD_REACTORS
330
26F
102
}
330
26F
100
DictionaryVariables
280
     0
  1
Standard
  0
DICTIONARYVAR
  5
271
102
{ACAD_REACTORS
330
26F
102
}
330
26F
100
DictionaryVariables
280
     0
  1
2
  0
DICTIONARY
  5
2A5
330
5C
100
AcDbDictionary
280
     1
281
     1
  3
ACAD_XREC_ROUNDTRIP
360
2A6
  0
DICTIONARY
  5
2A2
330
5A
100
AcDbDictionary
280
     1
281
     1
  3
ACAD_ROUNDTRIP_2008_TABLESTYLE_CELLSTYLEMAP
360
2A3
  0
DICTIONARY
  5
27A
330
2F
100
AcDbDictionary
280
     1
281
     1
  3
ACAD_XREC_ROUNDTRIP
360
27B
  0
DICTIONARY
  5
280
330
32
100
AcDbDictionary
280
     1
281
     1
  3
ACAD_XREC_ROUNDTRIP
360
281
  0
DICTIONARY
  5
288
330
36
100
AcDbDictionary
280
     1
281
     1
  3
ACAD_XREC_ROUNDTRIP
360
289
  0
DICTIONARY
  5
290
330
3A
100
AcDbDictionary
280
     1
281
     1
  3
ACAD_XREC_ROUNDTRIP
360
291
  0
DICTIONARY
  5
284
330
34
100
AcDbDictionary
280
     1
281
     1
  3
ACAD_XREC_ROUNDTRIP
360
285
  0
DICTIONARY
  5
286
330
35
100
AcDbDictionary
280
     1
281
     1
  3
ACAD_XREC_ROUNDTRIP
360
287
  0
DICTIONARY
  5
296
330
3D
100
AcDbDictionary
280
     1
281
     1
  3
ACAD_XREC_ROUNDTRIP
360
297
  0
DICTIONARY
  5
28E
330
39
100
AcDbDictionary
280
     1
281
     1
  3
ACAD_XREC_ROUNDTRIP
360
28F
  0
DICTIONARY
  5
272
330
2B
100
AcDbDictionary
280
     1
281
     1
  3
ACAD_XREC_ROUNDTRIP
360
273
  0
DICTIONARY
  5
274
330
2C
100
AcDbDictionary
280
     1
281
     1
  3
ACAD_XREC_ROUNDTRIP
360
275
  0
DICTIONARY
  5
276
330
2D
100
AcDbDictionary
280
     1
281
     1
  3
ACAD_XREC_ROUNDTRIP
360
277
  0
DICTIONARY
  5
278
330
2E
100
AcDbDictionary
280
     1
281
     1
  3
ACAD_XREC_ROUNDTRIP
360
279
  0
DICTIONARY
  5
27E
330
31
100
AcDbDictionary
280
     1
281
     1
  3
ACAD_XREC_ROUNDTRIP
360
27F
  0
DICTIONARY
  5
292
330
3B
100
AcDbDictionary
280
     1
281
     1
  3
ACAD_XREC_ROUNDTRIP
360
293
  0
DICTIONARY
  5
28C
330
38
100
AcDbDictionary
280
     1
281
     1
  3
ACAD_XREC_ROUNDTRIP
360
28D
  0
DICTIONARY
  5
294
330
3C
100
AcDbDictionary
280
     1
281
     1
  3
ACAD_XREC_ROUNDTRIP
360
295
  0
DICTIONARY
  5
282
330
33
100
AcDbDictionary
280
     1
281
     1
  3
ACAD_XREC_ROUNDTRIP
360
283
  0
DICTIONARY
  5
2A0
330
42
100
AcDbDictionary
280
     1
281
     1
  3
ACAD_XREC_ROUNDTRIP
360
2A1
  0
DICTIONARY
  5
29E
330
41
100
AcDbDictionary
280
     1
281
     1
  3
ACAD_XREC_ROUNDTRIP
360
29F
  0
DICTIONARY
  5
298
330
3E
100
AcDbDictionary
280
     1
281
     1
  3
ACAD_XREC_ROUNDTRIP
360
299
  0
DICTIONARY
  5
29A
330
3F
100
AcDbDictionary
280
     1
281
     1
  3
ACAD_XREC_ROUNDTRIP
360
29B
  0
DICTIONARY
  5
28A
330
37
100
AcDbDictionary
280
     1
281
     1
  3
ACAD_XREC_ROUNDTRIP
360
28B
  0
DICTIONARY
  5
27C
330
30
100
AcDbDictionary
280
     1
281
     1
  3
ACAD_XREC_ROUNDTRIP
360
27D
  0
DICTIONARY
  5
29C
330
40
100
AcDbDictionary
280
     1
281
     1
  3
ACAD_XREC_ROUNDTRIP
360
29D
  0
XRECORD
  5
2A6
102
{ACAD_REACTORS
330
2A5
102
}
330
2A5
100
AcDbXrecord
280
     1
102
ACAD_ROUNDTRIP_2010_MLEADER_STYLE
  0
CELLSTYLEMAP
  5
2A3
102
{ACAD_REACTORS
330
2A2
102
}
330
2A2
100
AcDbCellStyleMap
 90
        3
300
CELLSTYLE
  1
TABLEFORMAT_BEGIN
 90
        5
170
     1
 91
        0
 92
    32768
 62
   257
 93
        1
300
CONTENTFORMAT
  1
CONTENTFORMAT_BEGIN
 90
        0
 91
        0
 92
        4
 93
        0
300

 40
0.0
140
1.0
 94
        5
 62
     0
340
11
144
0.25
309
CONTENTFORMAT_END
171
     1
301
MARGIN
  1
CELLMARGIN_BEGIN
 40
0.06
 40
0.06
 40
0.06
 40
0.06
 40
0.06
 40
0.06
309
CELLMARGIN_END
 94
        6
 95
        1
302
GRIDFORMAT
  1
GRIDFORMAT_BEGIN
 90
        0
 91
        1
 62
     0
 92
       -2
340
14
 93
        0
 40
0.045
309
GRIDFORMAT_END
 95
        2
302
GRIDFORMAT
  1
GRIDFORMAT_BEGIN
 90
        0
 91
        1
 62
     0
 92
       -2
340
14
 93
        0
 40
0.045
309
GRIDFORMAT_END
 95
        4
302
GRIDFORMAT
  1
GRIDFORMAT_BEGIN
 90
        0
 91
        1
 62
     0
 92
       -2
340
14
 93
        0
 40
0.045
309
GRIDFORMAT_END
 95
        8
302
GRIDFORMAT
  1
GRIDFORMAT_BEGIN
 90
        0
 91
        1
 62
     0
 92
       -2
340
14
 93
        0
 40
0.045
309
GRIDFORMAT_END
 95
       16
302
GRIDFORMAT
  1
GRIDFORMAT_BEGIN
 90
        0
 91
        1
 62
     0
 92
       -2
340
14
 93
        0
 40
0.045
309
GRIDFORMAT_END
 95
       32
302
GRIDFORMAT
  1
GRIDFORMAT_BEGIN
 90
        0
 91
        1
 62
     0
 92
       -2
340
14
 93
        0
 40
0.045
309
GRIDFORMAT_END
309
TABLEFORMAT_END
  1
CELLSTYLE_BEGIN
 90
        1
 91
        1
300
_TITLE
309
CELLSTYLE_END
300
CELLSTYLE
  1
TABLEFORMAT_BEGIN
 90
        5
170
     1
 91
        0
 92
        0
 62
   257
 93
        1
300
CONTENTFORMAT
  1
CONTENTFORMAT_BEGIN
 90
        0
 91
        0
 92
        4
 93
        0
300

 40
0.0
140
1.0
 94
        5
 62
     0
340
11
144
0.18
309
CONTENTFORMAT_END
171
     1
301
MARGIN
  1
CELLMARGIN_BEGIN
 40
0.06
 40
0.06
 40
0.06
 40
0.06
 40
0.06
 40
0.06
309
CELLMARGIN_END
 94
        6
 95
        1
302
GRIDFORMAT
  1
GRIDFORMAT_BEGIN
 90
        0
 91
        1
 62
     0
 92
       -2
340
14
 93
        0
 40
0.045
309
GRIDFORMAT_END
 95
        2
302
GRIDFORMAT
  1
GRIDFORMAT_BEGIN
 90
        0
 91
        1
 62
     0
 92
       -2
340
14
 93
        0
 40
0.045
309
GRIDFORMAT_END
 95
        4
302
GRIDFORMAT
  1
GRIDFORMAT_BEGIN
 90
        0
 91
        1
 62
     0
 92
       -2
340
14
 93
        0
 40
0.045
309
GRIDFORMAT_END
 95
        8
302
GRIDFORMAT
  1
GRIDFORMAT_BEGIN
 90
        0
 91
        1
 62
     0
 92
       -2
340
14
 93
        0
 40
0.045
309
GRIDFORMAT_END
 95
       16
302
GRIDFORMAT
  1
GRIDFORMAT_BEGIN
 90
        0
 91
        1
 62
     0
 92
       -2
340
14
 93
        0
 40
0.045
309
GRIDFORMAT_END
 95
       32
302
GRIDFORMAT
  1
GRIDFORMAT_BEGIN
 90
        0
 91
        1
 62
     0
 92
       -2
340
14
 93
        0
 40
0.045
309
GRIDFORMAT_END
309
TABLEFORMAT_END
  1
CELLSTYLE_BEGIN
 90
        2
 91
        1
300
_HEADER
309
CELLSTYLE_END
300
CELLSTYLE
  1
TABLEFORMAT_BEGIN
 90
        5
170
     1
 91
        0
 92
        0
 62
   257
 93
        1
300
CONTENTFORMAT
  1
CONTENTFORMAT_BEGIN
 90
        0
 91
        0
 92
        4
 93
        0
300

 40
0.0
140
1.0
 94
        2
 62
     0
340
11
144
0.18
309
CONTENTFORMAT_END
171
     1
301
MARGIN
  1
CELLMARGIN_BEGIN
 40
0.06
 40
0.06
 40
0.06
 40
0.06
 40
0.06
 40
0.06
309
CELLMARGIN_END
 94
        6
 95
        1
302
GRIDFORMAT
  1
GRIDFORMAT_BEGIN
 90
        0
 91
        1
 62
     0
 92
       -2
340
14
 93
        0
 40
0.045
309
GRIDFORMAT_END
 95
        2
302
GRIDFORMAT
  1
GRIDFORMAT_BEGIN
 90
        0
 91
        1
 62
     0
 92
       -2
340
14
 93
        0
 40
0.045
309
GRIDFORMAT_END
 95
        4
302
GRIDFORMAT
  1
GRIDFORMAT_BEGIN
 90
        0
 91
        1
 62
     0
 92
       -2
340
14
 93
        0
 40
0.045
309
GRIDFORMAT_END
 95
        8
302
GRIDFORMAT
  1
GRIDFORMAT_BEGIN
 90
        0
 91
        1
 62
     0
 92
       -2
340
14
 93
        0
 40
0.045
309
GRIDFORMAT_END
 95
       16
302
GRIDFORMAT
  1
GRIDFORMAT_BEGIN
 90
        0
 91
        1
 62
     0
 92
       -2
340
14
 93
        0
 40
0.045
309
GRIDFORMAT_END
 95
       32
302
GRIDFORMAT
  1
GRIDFORMAT_BEGIN
 90
        0
 91
        1
 62
     0
 92
       -2
340
14
 93
        0
 40
0.045
309
GRIDFORMAT_END
309
TABLEFORMAT_END
  1
CELLSTYLE_BEGIN
 90
        3
 91
        2
300
_DATA
309
CELLSTYLE_END
  0
XRECORD
  5
27B
102
{ACAD_REACTORS
330
27A
102
}
330
27A
100
AcDbXrecord
280
     1
102
RTVSPropertyOp0
 70
     1
102
RTVSPropertyOp1
 70
     1
102
RTVSPropertyOp2
 70
     1
102
RTVSPropertyOp3
 70
     1
102
RTVSPropertyOp4
 70
     1
102
RTVSPropertyOp5
 70
     1
102
RTVSPropertyOp6
 70
     1
102
RTVSPropertyOp7
 70
     1
102
RTVSPropertyOp8
 70
     1
102
RTVSPropertyOp9
 70
     1
102
RTVSPropertyOp10
 70
     1
102
RTVSPropertyOp11
 70
     1
102
RTVSPropertyOp12
 70
     1
102
RTVSPropertyOp13
 70
     1
102
RTVSPropertyOp14
 70
     1
102
RTVSPropertyOp15
 70
     1
102
RTVSPropertyOp16
 70
     1
102
RTVSPropertyOp17
 70
     1
102
RTVSPropertyOp18
 70
     1
102
RTVSPropertyOp19
 70
     1
102
RTVSPropertyOp20
 70
     1
102
RTVSPropertyOp21
 70
     1
102
RTVSPropertyOp22
 70
     1
102
RTVSPropertyOp23
 70
     1
102
RTVSPropertyOp24
 70
     1
102
RTVSPropertyOp25
 70
     1
102
RTVSPropertyOp26
 70
     1
102
RTVSPropertyOp27
 70
     1
102
RTVSPropertyOp28
 70
     1
102
RTVSPropertyOp29
 70
     1
102
RTVSPropertyOp30
 70
     1
102
RTVSPropertyOp31
 70
     1
102
RTVSPropertyOp32
 70
     1
102
RTVSPropertyOp33
 70
     1
102
RTVSPropertyOp34
 70
     1
102
RTVSPropertyOp35
 70
     1
102
RTVSPropertyOp36
 70
     1
102
RTVSPropertyOp37
 70
     1
102
RTVSPropertyOp38
 70
     1
102
RTVSPropertyOp39
 70
     1
102
RTVSPropertyOp40
 70
     1
102
RTVSPropertyOp41
 70
     1
102
RTVSPropertyOp42
 70
     1
102
RTVSPropertyOp43
 70
     1
102
RTVSPropertyOp44
 70
     1
102
RTVSPropertyOp45
 70
     1
102
RTVSPropertyOp46
 70
     1
102
RTVSPropertyOp47
 70
     1
102
RTVSPropertyOp48
 70
     1
102
RTVSPropertyOp49
 70
     1
102
RTVSPropertyOp50
 70
     1
102
RTVSPropertyOp51
 70
     0
102
RTVSPropertyOp52
 70
     0
102
RTVSPropertyOp53
 70
     1
102
RTVSPropertyOp54
 70
     1
102
RTVSPropertyOp55
 70
     1
102
RTVSPropertyOp56
 70
     1
102
RTVSPropertyOp57
 70
     1
102
RTVSPost2010Prop28
280
     1
102
RTVSPost2010PropOp28
 70
     1
102
RTVSPost2010Prop29
280
     1
102
RTVSPost2010PropOp29
 70
     1
102
RTVSPost2010Prop30
280
     0
102
RTVSPost2010PropOp30
 70
     1
102
RTVSPost2010Prop31
280
     0
102
RTVSPost2010PropOp31
 70
     1
102
RTVSPost2010Prop32
280
     0
102
RTVSPost2010PropOp32
 70
     1
102
RTVSPost2010Prop33
280
     0
102
RTVSPost2010PropOp33
 70
     1
102
RTVSPost2010Prop34
280
     0
102
RTVSPost2010PropOp34
 70
     1
102
RTVSPost2010Prop35
280
     0
102
RTVSPost2010PropOp35
 70
     1
102
RTVSPost2010Prop36
280
     0
102
RTVSPost2010PropOp36
 70
     1
102
RTVSPost2010Prop37
 90
       50
102
RTVSPost2010PropOp37
 70
     1
102
RTVSPost2010Prop38
140
0.0
102
RTVSPost2010PropOp38
 70
     1
102
RTVSPost2010Prop39
140
1.0
102
RTVSPost2010PropOp39
 70
     1
102
RTVSPost2010Prop40
 90
        0
102
RTVSPost2010PropOp40
 70
     1
102
RTVSPost2010Prop41ColorIndex
 90
       18
102
RTVSPost2010Prop41ColorRGB
 90
        0
102
RTVSPost2010PropOp41
 70
     1
102
RTVSPost2010Prop42
 90
       50
102
RTVSPost2010PropOp42
 70
     1
102
RTVSPost2010Prop43
 90
        3
102
RTVSPost2010PropOp43
 70
     1
102
RTVSPost2010Prop44ColorIndex
 90
        5
102
RTVSPost2010Prop44ColorRGB
 90
      255
102
RTVSPost2010PropOp44
 70
     1
102
RTVSPost2010Prop45
280
     0
102
RTVSPost2010PropOp45
 70
     1
102
RTVSPost2010Prop46
 90
       50
102
RTVSPost2010PropOp46
 70
     1
102
RTVSPost2010Prop47
 90
       50
102
RTVSPost2010PropOp47
 70
     1
102
RTVSPost2010Prop48
 90
       50
102
RTVSPost2010PropOp48
 70
     1
102
RTVSPost2010Prop49
280
     0
102
RTVSPost2010PropOp49
 70
     1
102
RTVSPost2010Prop50
 90
       50
102
RTVSPost2010PropOp50
 70
     1
102
RTVSPost2010Prop51ColorIndex
 90
      256
102
RTVSPost2010Prop51ColorRGB
 90
-16777216
102
RTVSPost2010PropOp51
 70
     0
102
RTVSPost2010Prop52
140
1.0
102
RTVSPost2010PropOp52
 70
     0
102
RTVSPost2010Prop53
 90
        2
102
RTVSPost2010PropOp53
 70
     1
102
RTVSPost2010Prop54
  1
strokes_ogs.tif
102
RTVSPost2010PropOp54
 70
     1
102
RTVSPost2010Prop55
280
     0
102
RTVSPost2010PropOp55
 70
     1
102
RTVSPost2010Prop56
140
1.0
102
RTVSPost2010PropOp56
 70
     1
102
RTVSPost2010Prop57
140
1.0
102
RTVSPost2010PropOp57
 70
     1
  0
XRECORD
  5
281
102
{ACAD_REACTORS
330
280
102
}
330
280
100
AcDbXrecord
280
     1
102
RTVSPropertyOp0
 70
     1
102
RTVSPropertyOp1
 70
     1
102
RTVSPropertyOp2
 70
     1
102
RTVSPropertyOp3
 70
     1
102
RTVSPropertyOp4
 70
     1
102
RTVSPropertyOp5
 70
     1
102
RTVSPropertyOp6
 70
     1
102
RTVSPropertyOp7
 70
     1
102
RTVSPropertyOp8
 70
     1
102
RTVSPropertyOp9
 70
     1
102
RTVSPropertyOp10
 70
     1
102
RTVSPropertyOp11
 70
     1
102
RTVSPropertyOp12
 70
     1
102
RTVSPropertyOp13
 70
     1
102
RTVSPropertyOp14
 70
     1
102
RTVSPropertyOp15
 70
     1
102
RTVSPropertyOp16
 70
     1
102
RTVSPropertyOp17
 70
     1
102
RTVSPropertyOp18
 70
     1
102
RTVSPropertyOp19
 70
     1
102
RTVSPropertyOp20
 70
     1
102
RTVSPropertyOp21
 70
     1
102
RTVSPropertyOp22
 70
     1
102
RTVSPropertyOp23
 70
     1
102
RTVSPropertyOp24
 70
     1
102
RTVSPropertyOp25
 70
     1
102
RTVSPropertyOp26
 70
     1
102
RTVSPropertyOp27
 70
     1
102
RTVSPropertyOp28
 70
     1
102
RTVSPropertyOp29
 70
     1
102
RTVSPropertyOp30
 70
     1
102
RTVSPropertyOp31
 70
     1
102
RTVSPropertyOp32
 70
     1
102
RTVSPropertyOp33
 70
     1
102
RTVSPropertyOp34
 70
     1
102
RTVSPropertyOp35
 70
     1
102
RTVSPropertyOp36
 70
     1
102
RTVSPropertyOp37
 70
     1
102
RTVSPropertyOp38
 70
     1
102
RTVSPropertyOp39
 70
     1
102
RTVSPropertyOp40
 70
     1
102
RTVSPropertyOp41
 70
     1
102
RTVSPropertyOp42
 70
     1
102
RTVSPropertyOp43
 70
     1
102
RTVSPropertyOp44
 70
     1
102
RTVSPropertyOp45
 70
     1
102
RTVSPropertyOp46
 70
     1
102
RTVSPropertyOp47
 70
     1
102
RTVSPropertyOp48
 70
     1
102
RTVSPropertyOp49
 70
     1
102
RTVSPropertyOp50
 70
     1
102
RTVSPropertyOp51
 70
     0
102
RTVSPropertyOp52
 70
     0
102
RTVSPropertyOp53
 70
     1
102
RTVSPropertyOp54
 70
     1
102
RTVSPropertyOp55
 70
     1
102
RTVSPropertyOp56
 70
     1
102
RTVSPropertyOp57
 70
     1
102
RTVSPost2010Prop28
280
     0
102
RTVSPost2010PropOp28
 70
     1
102
RTVSPost2010Prop29
280
     1
102
RTVSPost2010PropOp29
 70
     1
102
RTVSPost2010Prop30
280
     1
102
RTVSPost2010PropOp30
 70
     1
102
RTVSPost2010Prop31
280
     0
102
RTVSPost2010PropOp31
 70
     1
102
RTVSPost2010Prop32
280
     0
102
RTVSPost2010PropOp32
 70
     1
102
RTVSPost2010Prop33
280
     0
102
RTVSPost2010PropOp33
 70
     1
102
RTVSPost2010Prop34
280
     0
102
RTVSPost2010PropOp34
 70
     1
102
RTVSPost2010Prop35
280
     0
102
RTVSPost2010PropOp35
 70
     1
102
RTVSPost2010Prop36
280
     0
102
RTVSPost2010PropOp36
 70
     1
102
RTVSPost2010Prop37
 90
       50
102
RTVSPost2010PropOp37
 70
     1
102
RTVSPost2010Prop38
140
0.0
102
RTVSPost2010PropOp38
 70
     1
102
RTVSPost2010Prop39
140
1.0
102
RTVSPost2010PropOp39
 70
     1
102
RTVSPost2010Prop40
 90
        0
102
RTVSPost2010PropOp40
 70
     1
102
RTVSPost2010Prop41ColorIndex
 90
       18
102
RTVSPost2010Prop41ColorRGB
 90
        0
102
RTVSPost2010PropOp41
 70
     1
102
RTVSPost2010Prop42
 90
       50
102
RTVSPost2010PropOp42
 70
     1
102
RTVSPost2010Prop43
 90
        3
102
RTVSPost2010PropOp43
 70
     1
102
RTVSPost2010Prop44ColorIndex
 90
        5
102
RTVSPost2010Prop44ColorRGB
 90
      255
102
RTVSPost2010PropOp44
 70
     1
102
RTVSPost2010Prop45
280
     0
102
RTVSPost2010PropOp45
 70
     1
102
RTVSPost2010Prop46
 90
       50
102
RTVSPost2010PropOp46
 70
     1
102
RTVSPost2010Prop47
 90
       50
102
RTVSPost2010PropOp47
 70
     1
102
RTVSPost2010Prop48
 90
       50
102
RTVSPost2010PropOp48
 70
     1
102
RTVSPost2010Prop49
280
     0
102
RTVSPost2010PropOp49
 70
     1
102
RTVSPost2010Prop50
 90
       50
102
RTVSPost2010PropOp50
 70
     1
102
RTVSPost2010Prop51ColorIndex
 90
      256
102
RTVSPost2010Prop51ColorRGB
 90
-16777216
102
RTVSPost2010PropOp51
 70
     0
102
RTVSPost2010Prop52
140
1.0
102
RTVSPost2010PropOp52
 70
     0
102
RTVSPost2010Prop53
 90
        2
102
RTVSPost2010PropOp53
 70
     1
102
RTVSPost2010Prop54
  1
strokes_ogs.tif
102
RTVSPost2010PropOp54
 70
     1
102
RTVSPost2010Prop55
280
     0
102
RTVSPost2010PropOp55
 70
     1
102
RTVSPost2010Prop56
140
1.0
102
RTVSPost2010PropOp56
 70
     1
102
RTVSPost2010Prop57
140
1.0
102
RTVSPost2010PropOp57
 70
     1
  0
XRECORD
  5
289
102
{ACAD_REACTORS
330
288
102
}
330
288
100
AcDbXrecord
280
     1
102
RTVSPropertyOp0
 70
     1
102
RTVSPropertyOp1
 70
     1
102
RTVSPropertyOp2
 70
     1
102
RTVSPropertyOp3
 70
     1
102
RTVSPropertyOp4
 70
     1
102
RTVSPropertyOp5
 70
     1
102
RTVSPropertyOp6
 70
     1
102
RTVSPropertyOp7
 70
     1
102
RTVSPropertyOp8
 70
     1
102
RTVSPropertyOp9
 70
     1
102
RTVSPropertyOp10
 70
     1
102
RTVSPropertyOp11
 70
     1
102
RTVSPropertyOp12
 70
     1
102
RTVSPropertyOp13
 70
     1
102
RTVSPropertyOp14
 70
     1
102
RTVSPropertyOp15
 70
     1
102
RTVSPropertyOp16
 70
     1
102
RTVSPropertyOp17
 70
     1
102
RTVSPropertyOp18
 70
     1
102
RTVSPropertyOp19
 70
     1
102
RTVSPropertyOp20
 70
     1
102
RTVSPropertyOp21
 70
     1
102
RTVSPropertyOp22
 70
     1
102
RTVSPropertyOp23
 70
     1
102
RTVSPropertyOp24
 70
     1
102
RTVSPropertyOp25
 70
     1
102
RTVSPropertyOp26
 70
     1
102
RTVSPropertyOp27
 70
     1
102
RTVSPropertyOp28
 70
     1
102
RTVSPropertyOp29
 70
     1
102
RTVSPropertyOp30
 70
     1
102
RTVSPropertyOp31
 70
     1
102
RTVSPropertyOp32
 70
     1
102
RTVSPropertyOp33
 70
     1
102
RTVSPropertyOp34
 70
     1
102
RTVSPropertyOp35
 70
     1
102
RTVSPropertyOp36
 70
     1
102
RTVSPropertyOp37
 70
     1
102
RTVSPropertyOp38
 70
     1
102
RTVSPropertyOp39
 70
     1
102
RTVSPropertyOp40
 70
     1
102
RTVSPropertyOp41
 70
     1
102
RTVSPropertyOp42
 70
     1
102
RTVSPropertyOp43
 70
     1
102
RTVSPropertyOp44
 70
     1
102
RTVSPropertyOp45
 70
     1
102
RTVSPropertyOp46
 70
     1
102
RTVSPropertyOp47
 70
     1
102
RTVSPropertyOp48
 70
     1
102
RTVSPropertyOp49
 70
     1
102
RTVSPropertyOp50
 70
     1
102
RTVSPropertyOp51
 70
     0
102
RTVSPropertyOp52
 70
     0
102
RTVSPropertyOp53
 70
     1
102
RTVSPropertyOp54
 70
     1
102
RTVSPropertyOp55
 70
     1
102
RTVSPropertyOp56
 70
     1
102
RTVSPropertyOp57
 70
     1
102
RTVSPost2010Prop28
280
     0
102
RTVSPost2010PropOp28
 70
     1
102
RTVSPost2010Prop29
280
     1
102
RTVSPost2010PropOp29
 70
     1
102
RTVSPost2010Prop30
280
     1
102
RTVSPost2010PropOp30
 70
     1
102
RTVSPost2010Prop31
280
     0
102
RTVSPost2010PropOp31
 70
     1
102
RTVSPost2010Prop32
280
     0
102
RTVSPost2010PropOp32
 70
     1
102
RTVSPost2010Prop33
280
     0
102
RTVSPost2010PropOp33
 70
     1
102
RTVSPost2010Prop34
280
     0
102
RTVSPost2010PropOp34
 70
     1
102
RTVSPost2010Prop35
280
     0
102
RTVSPost2010PropOp35
 70
     1
102
RTVSPost2010Prop36
280
     0
102
RTVSPost2010PropOp36
 70
     1
102
RTVSPost2010Prop37
 90
       50
102
RTVSPost2010PropOp37
 70
     1
102
RTVSPost2010Prop38
140
0.0
102
RTVSPost2010PropOp38
 70
     1
102
RTVSPost2010Prop39
140
1.0
102
RTVSPost2010PropOp39
 70
     1
102
RTVSPost2010Prop40
 90
        0
102
RTVSPost2010PropOp40
 70
     1
102
RTVSPost2010Prop41ColorIndex
 90
       18
102
RTVSPost2010Prop41ColorRGB
 90
        0
102
RTVSPost2010PropOp41
 70
     1
102
RTVSPost2010Prop42
 90
       50
102
RTVSPost2010PropOp42
 70
     1
102
RTVSPost2010Prop43
 90
        3
102
RTVSPost2010PropOp43
 70
     1
102
RTVSPost2010Prop44ColorIndex
 90
        5
102
RTVSPost2010Prop44ColorRGB
 90
      255
102
RTVSPost2010PropOp44
 70
     1
102
RTVSPost2010Prop45
280
     0
102
RTVSPost2010PropOp45
 70
     1
102
RTVSPost2010Prop46
 90
       50
102
RTVSPost2010PropOp46
 70
     1
102
RTVSPost2010Prop47
 90
       50
102
RTVSPost2010PropOp47
 70
     1
102
RTVSPost2010Prop48
 90
       50
102
RTVSPost2010PropOp48
 70
     1
102
RTVSPost2010Prop49
280
     0
102
RTVSPost2010PropOp49
 70
     1
102
RTVSPost2010Prop50
 90
       50
102
RTVSPost2010PropOp50
 70
     1
102
RTVSPost2010Prop51ColorIndex
 90
      256
102
RTVSPost2010Prop51ColorRGB
 90
-16777216
102
RTVSPost2010PropOp51
 70
     0
102
RTVSPost2010Prop52
140
1.0
102
RTVSPost2010PropOp52
 70
     0
102
RTVSPost2010Prop53
 90
        2
102
RTVSPost2010PropOp53
 70
     1
102
RTVSPost2010Prop54
  1
strokes_ogs.tif
102
RTVSPost2010PropOp54
 70
     1
102
RTVSPost2010Prop55
280
     0
102
RTVSPost2010PropOp55
 70
     1
102
RTVSPost2010Prop56
140
1.0
102
RTVSPost2010PropOp56
 70
     1
102
RTVSPost2010Prop57
140
1.0
102
RTVSPost2010PropOp57
 70
     1
  0
XRECORD
  5
291
102
{ACAD_REACTORS
330
290
102
}
330
290
100
AcDbXrecord
280
     1
102
RTVSPropertyOp0
 70
     1
102
RTVSPropertyOp1
 70
     1
102
RTVSPropertyOp2
 70
     1
102
RTVSPropertyOp3
 70
     1
102
RTVSPropertyOp4
 70
     1
102
RTVSPropertyOp5
 70
     1
102
RTVSPropertyOp6
 70
     1
102
RTVSPropertyOp7
 70
     1
102
RTVSPropertyOp8
 70
     1
102
RTVSPropertyOp9
 70
     1
102
RTVSPropertyOp10
 70
     1
102
RTVSPropertyOp11
 70
     1
102
RTVSPropertyOp12
 70
     1
102
RTVSPropertyOp13
 70
     1
102
RTVSPropertyOp14
 70
     1
102
RTVSPropertyOp15
 70
     1
102
RTVSPropertyOp16
 70
     1
102
RTVSPropertyOp17
 70
     1
102
RTVSPropertyOp18
 70
     1
102
RTVSPropertyOp19
 70
     1
102
RTVSPropertyOp20
 70
     1
102
RTVSPropertyOp21
 70
     1
102
RTVSPropertyOp22
 70
     1
102
RTVSPropertyOp23
 70
     1
102
RTVSPropertyOp24
 70
     1
102
RTVSPropertyOp25
 70
     1
102
RTVSPropertyOp26
 70
     1
102
RTVSPropertyOp27
 70
     1
102
RTVSPropertyOp28
 70
     1
102
RTVSPropertyOp29
 70
     1
102
RTVSPropertyOp30
 70
     1
102
RTVSPropertyOp31
 70
     1
102
RTVSPropertyOp32
 70
     1
102
RTVSPropertyOp33
 70
     1
102
RTVSPropertyOp34
 70
     1
102
RTVSPropertyOp35
 70
     1
102
RTVSPropertyOp36
 70
     1
102
RTVSPropertyOp37
 70
     1
102
RTVSPropertyOp38
 70
     1
102
RTVSPropertyOp39
 70
     1
102
RTVSPropertyOp40
 70
     1
102
RTVSPropertyOp41
 70
     1
102
RTVSPropertyOp42
 70
     1
102
RTVSPropertyOp43
 70
     1
102
RTVSPropertyOp44
 70
     1
102
RTVSPropertyOp45
 70
     1
102
RTVSPropertyOp46
 70
     1
102
RTVSPropertyOp47
 70
     1
102
RTVSPropertyOp48
 70
     1
102
RTVSPropertyOp49
 70
     1
102
RTVSPropertyOp50
 70
     1
102
RTVSPropertyOp51
 70
     0
102
RTVSPropertyOp52
 70
     0
102
RTVSPropertyOp53
 70
     1
102
RTVSPropertyOp54
 70
     1
102
RTVSPropertyOp55
 70
     1
102
RTVSPropertyOp56
 70
     1
102
RTVSPropertyOp57
 70
     1
102
RTVSPost2010Prop28
280
     0
102
RTVSPost2010PropOp28
 70
     1
102
RTVSPost2010Prop29
280
     1
102
RTVSPost2010PropOp29
 70
     1
102
RTVSPost2010Prop30
280
     1
102
RTVSPost2010PropOp30
 70
     1
102
RTVSPost2010Prop31
280
     0
102
RTVSPost2010PropOp31
 70
     1
102
RTVSPost2010Prop32
280
     0
102
RTVSPost2010PropOp32
 70
     1
102
RTVSPost2010Prop33
280
     0
102
RTVSPost2010PropOp33
 70
     1
102
RTVSPost2010Prop34
280
     0
102
RTVSPost2010PropOp34
 70
     1
102
RTVSPost2010Prop35
280
     0
102
RTVSPost2010PropOp35
 70
     1
102
RTVSPost2010Prop36
280
     0
102
RTVSPost2010PropOp36
 70
     1
102
RTVSPost2010Prop37
 90
       50
102
RTVSPost2010PropOp37
 70
     1
102
RTVSPost2010Prop38
140
0.0
102
RTVSPost2010PropOp38
 70
     1
102
RTVSPost2010Prop39
140
1.0
102
RTVSPost2010PropOp39
 70
     1
102
RTVSPost2010Prop40
 90
        0
102
RTVSPost2010PropOp40
 70
     1
102
RTVSPost2010Prop41ColorIndex
 90
       18
102
RTVSPost2010Prop41ColorRGB
 90
        0
102
RTVSPost2010PropOp41
 70
     1
102
RTVSPost2010Prop42
 90
       50
102
RTVSPost2010PropOp42
 70
     1
102
RTVSPost2010Prop43
 90
        3
102
RTVSPost2010PropOp43
 70
     1
102
RTVSPost2010Prop44ColorIndex
 90
        5
102
RTVSPost2010Prop44ColorRGB
 90
      255
102
RTVSPost2010PropOp44
 70
     1
102
RTVSPost2010Prop45
280
     0
102
RTVSPost2010PropOp45
 70
     1
102
RTVSPost2010Prop46
 90
       50
102
RTVSPost2010PropOp46
 70
     1
102
RTVSPost2010Prop47
 90
       50
102
RTVSPost2010PropOp47
 70
     1
102
RTVSPost2010Prop48
 90
       50
102
RTVSPost2010PropOp48
 70
     1
102
RTVSPost2010Prop49
280
     0
102
RTVSPost2010PropOp49
 70
     1
102
RTVSPost2010Prop50
 90
       50
102
RTVSPost2010PropOp50
 70
     1
102
RTVSPost2010Prop51ColorIndex
 90
      256
102
RTVSPost2010Prop51ColorRGB
 90
-16777216
102
RTVSPost2010PropOp51
 70
     0
102
RTVSPost2010Prop52
140
1.0
102
RTVSPost2010PropOp52
 70
     0
102
RTVSPost2010Prop53
 90
        2
102
RTVSPost2010PropOp53
 70
     1
102
RTVSPost2010Prop54
  1
strokes_ogs.tif
102
RTVSPost2010PropOp54
 70
     1
102
RTVSPost2010Prop55
280
     0
102
RTVSPost2010PropOp55
 70
     1
102
RTVSPost2010Prop56
140
1.0
102
RTVSPost2010PropOp56
 70
     1
102
RTVSPost2010Prop57
140
1.0
102
RTVSPost2010PropOp57
 70
     1
  0
XRECORD
  5
285
102
{ACAD_REACTORS
330
284
102
}
330
284
100
AcDbXrecord
280
     1
102
RTVSPropertyOp0
 70
     1
102
RTVSPropertyOp1
 70
     1
102
RTVSPropertyOp2
 70
     1
102
RTVSPropertyOp3
 70
     1
102
RTVSPropertyOp4
 70
     1
102
RTVSPropertyOp5
 70
     1
102
RTVSPropertyOp6
 70
     1
102
RTVSPropertyOp7
 70
     1
102
RTVSPropertyOp8
 70
     1
102
RTVSPropertyOp9
 70
     1
102
RTVSPropertyOp10
 70
     1
102
RTVSPropertyOp11
 70
     1
102
RTVSPropertyOp12
 70
     1
102
RTVSPropertyOp13
 70
     1
102
RTVSPropertyOp14
 70
     1
102
RTVSPropertyOp15
 70
     1
102
RTVSPropertyOp16
 70
     1
102
RTVSPropertyOp17
 70
     1
102
RTVSPropertyOp18
 70
     1
102
RTVSPropertyOp19
 70
     1
102
RTVSPropertyOp20
 70
     1
102
RTVSPropertyOp21
 70
     1
102
RTVSPropertyOp22
 70
     1
102
RTVSPropertyOp23
 70
     1
102
RTVSPropertyOp24
 70
     1
102
RTVSPropertyOp25
 70
     1
102
RTVSPropertyOp26
 70
     1
102
RTVSPropertyOp27
 70
     1
102
RTVSPropertyOp28
 70
     1
102
RTVSPropertyOp29
 70
     1
102
RTVSPropertyOp30
 70
     1
102
RTVSPropertyOp31
 70
     1
102
RTVSPropertyOp32
 70
     1
102
RTVSPropertyOp33
 70
     1
102
RTVSPropertyOp34
 70
     1
102
RTVSPropertyOp35
 70
     1
102
RTVSPropertyOp36
 70
     1
102
RTVSPropertyOp37
 70
     1
102
RTVSPropertyOp38
 70
     1
102
RTVSPropertyOp39
 70
     1
102
RTVSPropertyOp40
 70
     1
102
RTVSPropertyOp41
 70
     1
102
RTVSPropertyOp42
 70
     1
102
RTVSPropertyOp43
 70
     1
102
RTVSPropertyOp44
 70
     1
102
RTVSPropertyOp45
 70
     1
102
RTVSPropertyOp46
 70
     1
102
RTVSPropertyOp47
 70
     1
102
RTVSPropertyOp48
 70
     1
102
RTVSPropertyOp49
 70
     1
102
RTVSPropertyOp50
 70
     1
102
RTVSPropertyOp51
 70
     0
102
RTVSPropertyOp52
 70
     0
102
RTVSPropertyOp53
 70
     1
102
RTVSPropertyOp54
 70
     1
102
RTVSPropertyOp55
 70
     1
102
RTVSPropertyOp56
 70
     1
102
RTVSPropertyOp57
 70
     1
102
RTVSPost2010Prop28
280
     0
102
RTVSPost2010PropOp28
 70
     1
102
RTVSPost2010Prop29
280
     1
102
RTVSPost2010PropOp29
 70
     1
102
RTVSPost2010Prop30
280
     1
102
RTVSPost2010PropOp30
 70
     1
102
RTVSPost2010Prop31
280
     0
102
RTVSPost2010PropOp31
 70
     1
102
RTVSPost2010Prop32
280
     0
102
RTVSPost2010PropOp32
 70
     1
102
RTVSPost2010Prop33
280
     0
102
RTVSPost2010PropOp33
 70
     1
102
RTVSPost2010Prop34
280
     0
102
RTVSPost2010PropOp34
 70
     1
102
RTVSPost2010Prop35
280
     0
102
RTVSPost2010PropOp35
 70
     1
102
RTVSPost2010Prop36
280
     0
102
RTVSPost2010PropOp36
 70
     1
102
RTVSPost2010Prop37
 90
       50
102
RTVSPost2010PropOp37
 70
     1
102
RTVSPost2010Prop38
140
0.0
102
RTVSPost2010PropOp38
 70
     1
102
RTVSPost2010Prop39
140
1.0
102
RTVSPost2010PropOp39
 70
     1
102
RTVSPost2010Prop40
 90
        0
102
RTVSPost2010PropOp40
 70
     1
102
RTVSPost2010Prop41ColorIndex
 90
       18
102
RTVSPost2010Prop41ColorRGB
 90
        0
102
RTVSPost2010PropOp41
 70
     1
102
RTVSPost2010Prop42
 90
       50
102
RTVSPost2010PropOp42
 70
     1
102
RTVSPost2010Prop43
 90
        3
102
RTVSPost2010PropOp43
 70
     1
102
RTVSPost2010Prop44ColorIndex
 90
        5
102
RTVSPost2010Prop44ColorRGB
 90
      255
102
RTVSPost2010PropOp44
 70
     1
102
RTVSPost2010Prop45
280
     0
102
RTVSPost2010PropOp45
 70
     1
102
RTVSPost2010Prop46
 90
       50
102
RTVSPost2010PropOp46
 70
     1
102
RTVSPost2010Prop47
 90
       50
102
RTVSPost2010PropOp47
 70
     1
102
RTVSPost2010Prop48
 90
       50
102
RTVSPost2010PropOp48
 70
     1
102
RTVSPost2010Prop49
280
     0
102
RTVSPost2010PropOp49
 70
     1
102
RTVSPost2010Prop50
 90
       50
102
RTVSPost2010PropOp50
 70
     1
102
RTVSPost2010Prop51ColorIndex
 90
      256
102
RTVSPost2010Prop51ColorRGB
 90
-16777216
102
RTVSPost2010PropOp51
 70
     0
102
RTVSPost2010Prop52
140
1.0
102
RTVSPost2010PropOp52
 70
     0
102
RTVSPost2010Prop53
 90
        2
102
RTVSPost2010PropOp53
 70
     1
102
RTVSPost2010Prop54
  1
strokes_ogs.tif
102
RTVSPost2010PropOp54
 70
     1
102
RTVSPost2010Prop55
280
     0
102
RTVSPost2010PropOp55
 70
     1
102
RTVSPost2010Prop56
140
1.0
102
RTVSPost2010PropOp56
 70
     1
102
RTVSPost2010Prop57
140
1.0
102
RTVSPost2010PropOp57
 70
     1
  0
XRECORD
  5
287
102
{ACAD_REACTORS
330
286
102
}
330
286
100
AcDbXrecord
280
     1
102
RTVSPropertyOp0
 70
     1
102
RTVSPropertyOp1
 70
     1
102
RTVSPropertyOp2
 70
     1
102
RTVSPropertyOp3
 70
     1
102
RTVSPropertyOp4
 70
     1
102
RTVSPropertyOp5
 70
     1
102
RTVSPropertyOp6
 70
     1
102
RTVSPropertyOp7
 70
     1
102
RTVSPropertyOp8
 70
     1
102
RTVSPropertyOp9
 70
     1
102
RTVSPropertyOp10
 70
     1
102
RTVSPropertyOp11
 70
     1
102
RTVSPropertyOp12
 70
     1
102
RTVSPropertyOp13
 70
     1
102
RTVSPropertyOp14
 70
     1
102
RTVSPropertyOp15
 70
     1
102
RTVSPropertyOp16
 70
     1
102
RTVSPropertyOp17
 70
     1
102
RTVSPropertyOp18
 70
     1
102
RTVSPropertyOp19
 70
     1
102
RTVSPropertyOp20
 70
     1
102
RTVSPropertyOp21
 70
     1
102
RTVSPropertyOp22
 70
     1
102
RTVSPropertyOp23
 70
     1
102
RTVSPropertyOp24
 70
     1
102
RTVSPropertyOp25
 70
     1
102
RTVSPropertyOp26
 70
     1
102
RTVSPropertyOp27
 70
     1
102
RTVSPropertyOp28
 70
     1
102
RTVSPropertyOp29
 70
     1
102
RTVSPropertyOp30
 70
     1
102
RTVSPropertyOp31
 70
     1
102
RTVSPropertyOp32
 70
     1
102
RTVSPropertyOp33
 70
     1
102
RTVSPropertyOp34
 70
     1
102
RTVSPropertyOp35
 70
     1
102
RTVSPropertyOp36
 70
     1
102
RTVSPropertyOp37
 70
     1
102
RTVSPropertyOp38
 70
     1
102
RTVSPropertyOp39
 70
     1
102
RTVSPropertyOp40
 70
     1
102
RTVSPropertyOp41
 70
     1
102
RTVSPropertyOp42
 70
     1
102
RTVSPropertyOp43
 70
     1
102
RTVSPropertyOp44
 70
     1
102
RTVSPropertyOp45
 70
     1
102
RTVSPropertyOp46
 70
     1
102
RTVSPropertyOp47
 70
     1
102
RTVSPropertyOp48
 70
     1
102
RTVSPropertyOp49
 70
     1
102
RTVSPropertyOp50
 70
     1
102
RTVSPropertyOp51
 70
     0
102
RTVSPropertyOp52
 70
     0
102
RTVSPropertyOp53
 70
     1
102
RTVSPropertyOp54
 70
     1
102
RTVSPropertyOp55
 70
     1
102
RTVSPropertyOp56
 70
     1
102
RTVSPropertyOp57
 70
     1
102
RTVSPost2010Prop28
280
     0
102
RTVSPost2010PropOp28
 70
     1
102
RTVSPost2010Prop29
280
     1
102
RTVSPost2010PropOp29
 70
     1
102
RTVSPost2010Prop30
280
     1
102
RTVSPost2010PropOp30
 70
     1
102
RTVSPost2010Prop31
280
     0
102
RTVSPost2010PropOp31
 70
     1
102
RTVSPost2010Prop32
280
     0
102
RTVSPost2010PropOp32
 70
     1
102
RTVSPost2010Prop33
280
     0
102
RTVSPost2010PropOp33
 70
     1
102
RTVSPost2010Prop34
280
     0
102
RTVSPost2010PropOp34
 70
     1
102
RTVSPost2010Prop35
280
     0
102
RTVSPost2010PropOp35
 70
     1
102
RTVSPost2010Prop36
280
     0
102
RTVSPost2010PropOp36
 70
     1
102
RTVSPost2010Prop37
 90
       50
102
RTVSPost2010PropOp37
 70
     1
102
RTVSPost2010Prop38
140
0.0
102
RTVSPost2010PropOp38
 70
     1
102
RTVSPost2010Prop39
140
1.0
102
RTVSPost2010PropOp39
 70
     1
102
RTVSPost2010Prop40
 90
        0
102
RTVSPost2010PropOp40
 70
     1
102
RTVSPost2010Prop41ColorIndex
 90
       18
102
RTVSPost2010Prop41ColorRGB
 90
        0
102
RTVSPost2010PropOp41
 70
     1
102
RTVSPost2010Prop42
 90
       50
102
RTVSPost2010PropOp42
 70
     1
102
RTVSPost2010Prop43
 90
        3
102
RTVSPost2010PropOp43
 70
     1
102
RTVSPost2010Prop44ColorIndex
 90
        5
102
RTVSPost2010Prop44ColorRGB
 90
      255
102
RTVSPost2010PropOp44
 70
     1
102
RTVSPost2010Prop45
280
     0
102
RTVSPost2010PropOp45
 70
     1
102
RTVSPost2010Prop46
 90
       50
102
RTVSPost2010PropOp46
 70
     1
102
RTVSPost2010Prop47
 90
       50
102
RTVSPost2010PropOp47
 70
     1
102
RTVSPost2010Prop48
 90
       50
102
RTVSPost2010PropOp48
 70
     1
102
RTVSPost2010Prop49
280
     0
102
RTVSPost2010PropOp49
 70
     1
102
RTVSPost2010Prop50
 90
       50
102
RTVSPost2010PropOp50
 70
     1
102
RTVSPost2010Prop51ColorIndex
 90
      256
102
RTVSPost2010Prop51ColorRGB
 90
-16777216
102
RTVSPost2010PropOp51
 70
     0
102
RTVSPost2010Prop52
140
1.0
102
RTVSPost2010PropOp52
 70
     0
102
RTVSPost2010Prop53
 90
        2
102
RTVSPost2010PropOp53
 70
     1
102
RTVSPost2010Prop54
  1
strokes_ogs.tif
102
RTVSPost2010PropOp54
 70
     1
102
RTVSPost2010Prop55
280
     0
102
RTVSPost2010PropOp55
 70
     1
102
RTVSPost2010Prop56
140
1.0
102
RTVSPost2010PropOp56
 70
     1
102
RTVSPost2010Prop57
140
1.0
102
RTVSPost2010PropOp57
 70
     1
  0
XRECORD
  5
297
102
{ACAD_REACTORS
330
296
102
}
330
296
100
AcDbXrecord
280
     1
102
RTVSPropertyOp0
 70
     0
102
RTVSPropertyOp1
 70
     0
102
RTVSPropertyOp2
 70
     0
102
RTVSPropertyOp3
 70
     0
102
RTVSPropertyOp4
 70
     0
102
RTVSPropertyOp5
 70
     0
102
RTVSPropertyOp6
 70
     0
102
RTVSPropertyOp7
 70
     0
102
RTVSPropertyOp8
 70
     0
102
RTVSPropertyOp9
 70
     0
102
RTVSPropertyOp10
 70
     0
102
RTVSPropertyOp11
 70
     0
102
RTVSPropertyOp12
 70
     0
102
RTVSPropertyOp13
 70
     0
102
RTVSPropertyOp14
 70
     2
102
RTVSPropertyOp15
 70
     0
102
RTVSPropertyOp16
 70
     0
102
RTVSPropertyOp17
 70
     0
102
RTVSPropertyOp18
 70
     0
102
RTVSPropertyOp19
 70
     0
102
RTVSPropertyOp20
 70
     0
102
RTVSPropertyOp21
 70
     0
102
RTVSPropertyOp22
 70
     0
102
RTVSPropertyOp23
 70
     0
102
RTVSPropertyOp24
 70
     0
102
RTVSPropertyOp25
 70
     0
102
RTVSPropertyOp26
 70
     0
102
RTVSPropertyOp27
 70
     0
102
RTVSPropertyOp28
 70
     0
102
RTVSPropertyOp29
 70
     0
102
RTVSPropertyOp30
 70
     0
102
RTVSPropertyOp31
 70
     0
102
RTVSPropertyOp32
 70
     0
102
RTVSPropertyOp33
 70
     0
102
RTVSPropertyOp34
 70
     0
102
RTVSPropertyOp35
 70
     0
102
RTVSPropertyOp36
 70
     0
102
RTVSPropertyOp37
 70
     0
102
RTVSPropertyOp38
 70
     0
102
RTVSPropertyOp39
 70
     0
102
RTVSPropertyOp40
 70
     0
102
RTVSPropertyOp41
 70
     0
102
RTVSPropertyOp42
 70
     0
102
RTVSPropertyOp43
 70
     0
102
RTVSPropertyOp44
 70
     0
102
RTVSPropertyOp45
 70
     0
102
RTVSPropertyOp46
 70
     0
102
RTVSPropertyOp47
 70
     0
102
RTVSPropertyOp48
 70
     0
102
RTVSPropertyOp49
 70
     0
102
RTVSPropertyOp50
 70
     0
102
RTVSPropertyOp51
 70
     0
102
RTVSPropertyOp52
 70
     0
102
RTVSPropertyOp53
 70
     0
102
RTVSPropertyOp54
 70
     0
102
RTVSPropertyOp55
 70
     0
102
RTVSPropertyOp56
 70
     0
102
RTVSPropertyOp57
 70
     0
102
RTVSPost2010Prop28
280
     0
102
RTVSPost2010PropOp28
 70
     0
102
RTVSPost2010Prop29
280
     1
102
RTVSPost2010PropOp29
 70
     0
102
RTVSPost2010Prop30
280
     1
102
RTVSPost2010PropOp30
 70
     0
102
RTVSPost2010Prop31
280
     0
102
RTVSPost2010PropOp31
 70
     0
102
RTVSPost2010Prop32
280
     0
102
RTVSPost2010PropOp32
 70
     0
102
RTVSPost2010Prop33
280
     0
102
RTVSPost2010PropOp33
 70
     0
102
RTVSPost2010Prop34
280
     0
102
RTVSPost2010PropOp34
 70
     0
102
RTVSPost2010Prop35
280
     0
102
RTVSPost2010PropOp35
 70
     0
102
RTVSPost2010Prop36
280
     0
102
RTVSPost2010PropOp36
 70
     0
102
RTVSPost2010Prop37
 90
       50
102
RTVSPost2010PropOp37
 70
     0
102
RTVSPost2010Prop38
140
0.0
102
RTVSPost2010PropOp38
 70
     0
102
RTVSPost2010Prop39
140
1.0
102
RTVSPost2010PropOp39
 70
     0
102
RTVSPost2010Prop40
 90
        0
102
RTVSPost2010PropOp40
 70
     0
102
RTVSPost2010Prop41ColorIndex
 90
       18
102
RTVSPost2010Prop41ColorRGB
 90
        0
102
RTVSPost2010PropOp41
 70
     0
102
RTVSPost2010Prop42
 90
       50
102
RTVSPost2010PropOp42
 70
     0
102
RTVSPost2010Prop43
 90
        3
102
RTVSPost2010PropOp43
 70
     0
102
RTVSPost2010Prop44ColorIndex
 90
        5
102
RTVSPost2010Prop44ColorRGB
 90
      255
102
RTVSPost2010PropOp44
 70
     0
102
RTVSPost2010Prop45
280
     0
102
RTVSPost2010PropOp45
 70
     0
102
RTVSPost2010Prop46
 90
       50
102
RTVSPost2010PropOp46
 70
     0
102
RTVSPost2010Prop47
 90
       50
102
RTVSPost2010PropOp47
 70
     0
102
RTVSPost2010Prop48
 90
       50
102
RTVSPost2010PropOp48
 70
     0
102
RTVSPost2010Prop49
280
     0
102
RTVSPost2010PropOp49
 70
     0
102
RTVSPost2010Prop50
 90
       50
102
RTVSPost2010PropOp50
 70
     0
102
RTVSPost2010Prop51ColorIndex
 90
      256
102
RTVSPost2010Prop51ColorRGB
 90
-16777216
102
RTVSPost2010PropOp51
 70
     0
102
RTVSPost2010Prop52
140
1.0
102
RTVSPost2010PropOp52
 70
     0
102
RTVSPost2010Prop53
 90
        2
102
RTVSPost2010PropOp53
 70
     0
102
RTVSPost2010Prop54
  1
strokes_ogs.tif
102
RTVSPost2010PropOp54
 70
     0
102
RTVSPost2010Prop55
280
     0
102
RTVSPost2010PropOp55
 70
     0
102
RTVSPost2010Prop56
140
1.0
102
RTVSPost2010PropOp56
 70
     0
102
RTVSPost2010Prop57
140
1.0
102
RTVSPost2010PropOp57
 70
     0
  0
XRECORD
  5
28F
102
{ACAD_REACTORS
330
28E
102
}
330
28E
100
AcDbXrecord
280
     1
102
RTVSPropertyOp0
 70
     1
102
RTVSPropertyOp1
 70
     1
102
RTVSPropertyOp2
 70
     1
102
RTVSPropertyOp3
 70
     1
102
RTVSPropertyOp4
 70
     1
102
RTVSPropertyOp5
 70
     1
102
RTVSPropertyOp6
 70
     1
102
RTVSPropertyOp7
 70
     1
102
RTVSPropertyOp8
 70
     1
102
RTVSPropertyOp9
 70
     1
102
RTVSPropertyOp10
 70
     1
102
RTVSPropertyOp11
 70
     1
102
RTVSPropertyOp12
 70
     1
102
RTVSPropertyOp13
 70
     1
102
RTVSPropertyOp14
 70
     1
102
RTVSPropertyOp15
 70
     1
102
RTVSPropertyOp16
 70
     1
102
RTVSPropertyOp17
 70
     1
102
RTVSPropertyOp18
 70
     1
102
RTVSPropertyOp19
 70
     1
102
RTVSPropertyOp20
 70
     1
102
RTVSPropertyOp21
 70
     1
102
RTVSPropertyOp22
 70
     1
102
RTVSPropertyOp23
 70
     1
102
RTVSPropertyOp24
 70
     1
102
RTVSPropertyOp25
 70
     1
102
RTVSPropertyOp26
 70
     1
102
RTVSPropertyOp27
 70
     1
102
RTVSPropertyOp28
 70
     1
102
RTVSPropertyOp29
 70
     1
102
RTVSPropertyOp30
 70
     1
102
RTVSPropertyOp31
 70
     1
102
RTVSPropertyOp32
 70
     1
102
RTVSPropertyOp33
 70
     1
102
RTVSPropertyOp34
 70
     1
102
RTVSPropertyOp35
 70
     1
102
RTVSPropertyOp36
 70
     1
102
RTVSPropertyOp37
 70
     1
102
RTVSPropertyOp38
 70
     1
102
RTVSPropertyOp39
 70
     1
102
RTVSPropertyOp40
 70
     1
102
RTVSPropertyOp41
 70
     1
102
RTVSPropertyOp42
 70
     1
102
RTVSPropertyOp43
 70
     1
102
RTVSPropertyOp44
 70
     1
102
RTVSPropertyOp45
 70
     1
102
RTVSPropertyOp46
 70
     1
102
RTVSPropertyOp47
 70
     1
102
RTVSPropertyOp48
 70
     1
102
RTVSPropertyOp49
 70
     1
102
RTVSPropertyOp50
 70
     1
102
RTVSPropertyOp51
 70
     0
102
RTVSPropertyOp52
 70
     0
102
RTVSPropertyOp53
 70
     1
102
RTVSPropertyOp54
 70
     1
102
RTVSPropertyOp55
 70
     1
102
RTVSPropertyOp56
 70
     1
102
RTVSPropertyOp57
 70
     1
102
RTVSPost2010Prop28
280
     0
102
RTVSPost2010PropOp28
 70
     1
102
RTVSPost2010Prop29
280
     1
102
RTVSPost2010PropOp29
 70
     1
102
RTVSPost2010Prop30
280
     1
102
RTVSPost2010PropOp30
 70
     1
102
RTVSPost2010Prop31
280
     0
102
RTVSPost2010PropOp31
 70
     1
102
RTVSPost2010Prop32
280
     0
102
RTVSPost2010PropOp32
 70
     1
102
RTVSPost2010Prop33
280
     0
102
RTVSPost2010PropOp33
 70
     1
102
RTVSPost2010Prop34
280
     0
102
RTVSPost2010PropOp34
 70
     1
102
RTVSPost2010Prop35
280
     0
102
RTVSPost2010PropOp35
 70
     1
102
RTVSPost2010Prop36
280
     0
102
RTVSPost2010PropOp36
 70
     1
102
RTVSPost2010Prop37
 90
       50
102
RTVSPost2010PropOp37
 70
     1
102
RTVSPost2010Prop38
140
0.0
102
RTVSPost2010PropOp38
 70
     1
102
RTVSPost2010Prop39
140
1.0
102
RTVSPost2010PropOp39
 70
     1
102
RTVSPost2010Prop40
 90
        0
102
RTVSPost2010PropOp40
 70
     1
102
RTVSPost2010Prop41ColorIndex
 90
       18
102
RTVSPost2010Prop41ColorRGB
 90
        0
102
RTVSPost2010PropOp41
 70
     1
102
RTVSPost2010Prop42
 90
       50
102
RTVSPost2010PropOp42
 70
     1
102
RTVSPost2010Prop43
 90
        3
102
RTVSPost2010PropOp43
 70
     1
102
RTVSPost2010Prop44ColorIndex
 90
        5
102
RTVSPost2010Prop44ColorRGB
 90
      255
102
RTVSPost2010PropOp44
 70
     1
102
RTVSPost2010Prop45
280
     0
102
RTVSPost2010PropOp45
 70
     1
102
RTVSPost2010Prop46
 90
       50
102
RTVSPost2010PropOp46
 70
     1
102
RTVSPost2010Prop47
 90
       50
102
RTVSPost2010PropOp47
 70
     1
102
RTVSPost2010Prop48
 90
       50
102
RTVSPost2010PropOp48
 70
     1
102
RTVSPost2010Prop49
280
     0
102
RTVSPost2010PropOp49
 70
     1
102
RTVSPost2010Prop50
 90
       50
102
RTVSPost2010PropOp50
 70
     1
102
RTVSPost2010Prop51ColorIndex
 90
      256
102
RTVSPost2010Prop51ColorRGB
 90
-16777216
102
RTVSPost2010PropOp51
 70
     0
102
RTVSPost2010Prop52
140
1.0
102
RTVSPost2010PropOp52
 70
     0
102
RTVSPost2010Prop53
 90
        2
102
RTVSPost2010PropOp53
 70
     1
102
RTVSPost2010Prop54
  1
strokes_ogs.tif
102
RTVSPost2010PropOp54
 70
     1
102
RTVSPost2010Prop55
280
     0
102
RTVSPost2010PropOp55
 70
     1
102
RTVSPost2010Prop56
140
1.0
102
RTVSPost2010PropOp56
 70
     1
102
RTVSPost2010Prop57
140
1.0
102
RTVSPost2010PropOp57
 70
     1
  0
XRECORD
  5
273
102
{ACAD_REACTORS
330
272
102
}
330
272
100
AcDbXrecord
280
     1
102
RTVSPropertyOp0
 70
     1
102
RTVSPropertyOp1
 70
     1
102
RTVSPropertyOp2
 70
     1
102
RTVSPropertyOp3
 70
     1
102
RTVSPropertyOp4
 70
     1
102
RTVSPropertyOp5
 70
     1
102
RTVSPropertyOp6
 70
     1
102
RTVSPropertyOp7
 70
     1
102
RTVSPropertyOp8
 70
     1
102
RTVSPropertyOp9
 70
     1
102
RTVSPropertyOp10
 70
     1
102
RTVSPropertyOp11
 70
     1
102
RTVSPropertyOp12
 70
     1
102
RTVSPropertyOp13
 70
     1
102
RTVSPropertyOp14
 70
     1
102
RTVSPropertyOp15
 70
     1
102
RTVSPropertyOp16
 70
     1
102
RTVSPropertyOp17
 70
     1
102
RTVSPropertyOp18
 70
     1
102
RTVSPropertyOp19
 70
     1
102
RTVSPropertyOp20
 70
     1
102
RTVSPropertyOp21
 70
     1
102
RTVSPropertyOp22
 70
     1
102
RTVSPropertyOp23
 70
     1
102
RTVSPropertyOp24
 70
     1
102
RTVSPropertyOp25
 70
     1
102
RTVSPropertyOp26
 70
     1
102
RTVSPropertyOp27
 70
     1
102
RTVSPropertyOp28
 70
     1
102
RTVSPropertyOp29
 70
     1
102
RTVSPropertyOp30
 70
     1
102
RTVSPropertyOp31
 70
     1
102
RTVSPropertyOp32
 70
     1
102
RTVSPropertyOp33
 70
     1
102
RTVSPropertyOp34
 70
     1
102
RTVSPropertyOp35
 70
     1
102
RTVSPropertyOp36
 70
     1
102
RTVSPropertyOp37
 70
     1
102
RTVSPropertyOp38
 70
     1
102
RTVSPropertyOp39
 70
     1
102
RTVSPropertyOp40
 70
     1
102
RTVSPropertyOp41
 70
     1
102
RTVSPropertyOp42
 70
     1
102
RTVSPropertyOp43
 70
     1
102
RTVSPropertyOp44
 70
     1
102
RTVSPropertyOp45
 70
     1
102
RTVSPropertyOp46
 70
     1
102
RTVSPropertyOp47
 70
     1
102
RTVSPropertyOp48
 70
     1
102
RTVSPropertyOp49
 70
     1
102
RTVSPropertyOp50
 70
     1
102
RTVSPropertyOp51
 70
     0
102
RTVSPropertyOp52
 70
     0
102
RTVSPropertyOp53
 70
     1
102
RTVSPropertyOp54
 70
     1
102
RTVSPropertyOp55
 70
     1
102
RTVSPropertyOp56
 70
     1
102
RTVSPropertyOp57
 70
     1
102
RTVSPost2010Prop28
280
     0
102
RTVSPost2010PropOp28
 70
     1
102
RTVSPost2010Prop29
280
     1
102
RTVSPost2010PropOp29
 70
     1
102
RTVSPost2010Prop30
280
     1
102
RTVSPost2010PropOp30
 70
     1
102
RTVSPost2010Prop31
280
     0
102
RTVSPost2010PropOp31
 70
     1
102
RTVSPost2010Prop32
280
     0
102
RTVSPost2010PropOp32
 70
     1
102
RTVSPost2010Prop33
280
     0
102
RTVSPost2010PropOp33
 70
     1
102
RTVSPost2010Prop34
280
     0
102
RTVSPost2010PropOp34
 70
     1
102
RTVSPost2010Prop35
280
     0
102
RTVSPost2010PropOp35
 70
     1
102
RTVSPost2010Prop36
280
     0
102
RTVSPost2010PropOp36
 70
     1
102
RTVSPost2010Prop37
 90
       50
102
RTVSPost2010PropOp37
 70
     1
102
RTVSPost2010Prop38
140
0.0
102
RTVSPost2010PropOp38
 70
     1
102
RTVSPost2010Prop39
140
1.0
102
RTVSPost2010PropOp39
 70
     1
102
RTVSPost2010Prop40
 90
        0
102
RTVSPost2010PropOp40
 70
     1
102
RTVSPost2010Prop41ColorIndex
 90
       18
102
RTVSPost2010Prop41ColorRGB
 90
        0
102
RTVSPost2010PropOp41
 70
     1
102
RTVSPost2010Prop42
 90
       50
102
RTVSPost2010PropOp42
 70
     1
102
RTVSPost2010Prop43
 90
        3
102
RTVSPost2010PropOp43
 70
     1
102
RTVSPost2010Prop44ColorIndex
 90
        5
102
RTVSPost2010Prop44ColorRGB
 90
      255
102
RTVSPost2010PropOp44
 70
     1
102
RTVSPost2010Prop45
280
     0
102
RTVSPost2010PropOp45
 70
     1
102
RTVSPost2010Prop46
 90
       50
102
RTVSPost2010PropOp46
 70
     1
102
RTVSPost2010Prop47
 90
       50
102
RTVSPost2010PropOp47
 70
     1
102
RTVSPost2010Prop48
 90
       50
102
RTVSPost2010PropOp48
 70
     1
102
RTVSPost2010Prop49
280
     0
102
RTVSPost2010PropOp49
 70
     1
102
RTVSPost2010Prop50
 90
       50
102
RTVSPost2010PropOp50
 70
     1
102
RTVSPost2010Prop51ColorIndex
 90
      256
102
RTVSPost2010Prop51ColorRGB
 90
-16777216
102
RTVSPost2010PropOp51
 70
     0
102
RTVSPost2010Prop52
140
1.0
102
RTVSPost2010PropOp52
 70
     0
102
RTVSPost2010Prop53
 90
        2
102
RTVSPost2010PropOp53
 70
     1
102
RTVSPost2010Prop54
  1
strokes_ogs.tif
102
RTVSPost2010PropOp54
 70
     1
102
RTVSPost2010Prop55
280
     0
102
RTVSPost2010PropOp55
 70
     1
102
RTVSPost2010Prop56
140
1.0
102
RTVSPost2010PropOp56
 70
     1
102
RTVSPost2010Prop57
140
1.0
102
RTVSPost2010PropOp57
 70
     1
  0
XRECORD
  5
275
102
{ACAD_REACTORS
330
274
102
}
330
274
100
AcDbXrecord
280
     1
102
RTVSPropertyOp0
 70
     1
102
RTVSPropertyOp1
 70
     1
102
RTVSPropertyOp2
 70
     1
102
RTVSPropertyOp3
 70
     1
102
RTVSPropertyOp4
 70
     1
102
RTVSPropertyOp5
 70
     1
102
RTVSPropertyOp6
 70
     1
102
RTVSPropertyOp7
 70
     1
102
RTVSPropertyOp8
 70
     1
102
RTVSPropertyOp9
 70
     1
102
RTVSPropertyOp10
 70
     1
102
RTVSPropertyOp11
 70
     1
102
RTVSPropertyOp12
 70
     1
102
RTVSPropertyOp13
 70
     1
102
RTVSPropertyOp14
 70
     1
102
RTVSPropertyOp15
 70
     1
102
RTVSPropertyOp16
 70
     1
102
RTVSPropertyOp17
 70
     1
102
RTVSPropertyOp18
 70
     1
102
RTVSPropertyOp19
 70
     1
102
RTVSPropertyOp20
 70
     1
102
RTVSPropertyOp21
 70
     1
102
RTVSPropertyOp22
 70
     1
102
RTVSPropertyOp23
 70
     1
102
RTVSPropertyOp24
 70
     1
102
RTVSPropertyOp25
 70
     1
102
RTVSPropertyOp26
 70
     1
102
RTVSPropertyOp27
 70
     1
102
RTVSPropertyOp28
 70
     1
102
RTVSPropertyOp29
 70
     1
102
RTVSPropertyOp30
 70
     1
102
RTVSPropertyOp31
 70
     1
102
RTVSPropertyOp32
 70
     1
102
RTVSPropertyOp33
 70
     1
102
RTVSPropertyOp34
 70
     1
102
RTVSPropertyOp35
 70
     1
102
RTVSPropertyOp36
 70
     1
102
RTVSPropertyOp37
 70
     1
102
RTVSPropertyOp38
 70
     1
102
RTVSPropertyOp39
 70
     1
102
RTVSPropertyOp40
 70
     1
102
RTVSPropertyOp41
 70
     1
102
RTVSPropertyOp42
 70
     1
102
RTVSPropertyOp43
 70
     1
102
RTVSPropertyOp44
 70
     1
102
RTVSPropertyOp45
 70
     1
102
RTVSPropertyOp46
 70
     1
102
RTVSPropertyOp47
 70
     1
102
RTVSPropertyOp48
 70
     1
102
RTVSPropertyOp49
 70
     1
102
RTVSPropertyOp50
 70
     1
102
RTVSPropertyOp51
 70
     0
102
RTVSPropertyOp52
 70
     0
102
RTVSPropertyOp53
 70
     1
102
RTVSPropertyOp54
 70
     1
102
RTVSPropertyOp55
 70
     1
102
RTVSPropertyOp56
 70
     1
102
RTVSPropertyOp57
 70
     1
102
RTVSPost2010Prop28
280
     0
102
RTVSPost2010PropOp28
 70
     1
102
RTVSPost2010Prop29
280
     1
102
RTVSPost2010PropOp29
 70
     1
102
RTVSPost2010Prop30
280
     1
102
RTVSPost2010PropOp30
 70
     1
102
RTVSPost2010Prop31
280
     0
102
RTVSPost2010PropOp31
 70
     1
102
RTVSPost2010Prop32
280
     0
102
RTVSPost2010PropOp32
 70
     1
102
RTVSPost2010Prop33
280
     0
102
RTVSPost2010PropOp33
 70
     1
102
RTVSPost2010Prop34
280
     0
102
RTVSPost2010PropOp34
 70
     1
102
RTVSPost2010Prop35
280
     0
102
RTVSPost2010PropOp35
 70
     1
102
RTVSPost2010Prop36
280
     0
102
RTVSPost2010PropOp36
 70
     1
102
RTVSPost2010Prop37
 90
       50
102
RTVSPost2010PropOp37
 70
     1
102
RTVSPost2010Prop38
140
0.0
102
RTVSPost2010PropOp38
 70
     1
102
RTVSPost2010Prop39
140
1.0
102
RTVSPost2010PropOp39
 70
     1
102
RTVSPost2010Prop40
 90
        0
102
RTVSPost2010PropOp40
 70
     1
102
RTVSPost2010Prop41ColorIndex
 90
       18
102
RTVSPost2010Prop41ColorRGB
 90
        0
102
RTVSPost2010PropOp41
 70
     1
102
RTVSPost2010Prop42
 90
       50
102
RTVSPost2010PropOp42
 70
     1
102
RTVSPost2010Prop43
 90
        3
102
RTVSPost2010PropOp43
 70
     1
102
RTVSPost2010Prop44ColorIndex
 90
        5
102
RTVSPost2010Prop44ColorRGB
 90
      255
102
RTVSPost2010PropOp44
 70
     1
102
RTVSPost2010Prop45
280
     0
102
RTVSPost2010PropOp45
 70
     1
102
RTVSPost2010Prop46
 90
       50
102
RTVSPost2010PropOp46
 70
     1
102
RTVSPost2010Prop47
 90
       50
102
RTVSPost2010PropOp47
 70
     1
102
RTVSPost2010Prop48
 90
       50
102
RTVSPost2010PropOp48
 70
     1
102
RTVSPost2010Prop49
280
     0
102
RTVSPost2010PropOp49
 70
     1
102
RTVSPost2010Prop50
 90
       50
102
RTVSPost2010PropOp50
 70
     1
102
RTVSPost2010Prop51ColorIndex
 90
      256
102
RTVSPost2010Prop51ColorRGB
 90
-16777216
102
RTVSPost2010PropOp51
 70
     0
102
RTVSPost2010Prop52
140
1.0
102
RTVSPost2010PropOp52
 70
     0
102
RTVSPost2010Prop53
 90
        2
102
RTVSPost2010PropOp53
 70
     1
102
RTVSPost2010Prop54
  1
strokes_ogs.tif
102
RTVSPost2010PropOp54
 70
     1
102
RTVSPost2010Prop55
280
     0
102
RTVSPost2010PropOp55
 70
     1
102
RTVSPost2010Prop56
140
1.0
102
RTVSPost2010PropOp56
 70
     1
102
RTVSPost2010Prop57
140
1.0
102
RTVSPost2010PropOp57
 70
     1
  0
XRECORD
  5
277
102
{ACAD_REACTORS
330
276
102
}
330
276
100
AcDbXrecord
280
     1
102
RTVSPropertyOp0
 70
     1
102
RTVSPropertyOp1
 70
     1
102
RTVSPropertyOp2
 70
     1
102
RTVSPropertyOp3
 70
     1
102
RTVSPropertyOp4
 70
     1
102
RTVSPropertyOp5
 70
     1
102
RTVSPropertyOp6
 70
     1
102
RTVSPropertyOp7
 70
     1
102
RTVSPropertyOp8
 70
     1
102
RTVSPropertyOp9
 70
     1
102
RTVSPropertyOp10
 70
     1
102
RTVSPropertyOp11
 70
     1
102
RTVSPropertyOp12
 70
     1
102
RTVSPropertyOp13
 70
     1
102
RTVSPropertyOp14
 70
     1
102
RTVSPropertyOp15
 70
     1
102
RTVSPropertyOp16
 70
     1
102
RTVSPropertyOp17
 70
     1
102
RTVSPropertyOp18
 70
     1
102
RTVSPropertyOp19
 70
     1
102
RTVSPropertyOp20
 70
     1
102
RTVSPropertyOp21
 70
     1
102
RTVSPropertyOp22
 70
     1
102
RTVSPropertyOp23
 70
     1
102
RTVSPropertyOp24
 70
     1
102
RTVSPropertyOp25
 70
     1
102
RTVSPropertyOp26
 70
     1
102
RTVSPropertyOp27
 70
     1
102
RTVSPropertyOp28
 70
     1
102
RTVSPropertyOp29
 70
     1
102
RTVSPropertyOp30
 70
     1
102
RTVSPropertyOp31
 70
     1
102
RTVSPropertyOp32
 70
     1
102
RTVSPropertyOp33
 70
     1
102
RTVSPropertyOp34
 70
     1
102
RTVSPropertyOp35
 70
     1
102
RTVSPropertyOp36
 70
     1
102
RTVSPropertyOp37
 70
     1
102
RTVSPropertyOp38
 70
     1
102
RTVSPropertyOp39
 70
     1
102
RTVSPropertyOp40
 70
     1
102
RTVSPropertyOp41
 70
     1
102
RTVSPropertyOp42
 70
     1
102
RTVSPropertyOp43
 70
     1
102
RTVSPropertyOp44
 70
     1
102
RTVSPropertyOp45
 70
     1
102
RTVSPropertyOp46
 70
     1
102
RTVSPropertyOp47
 70
     1
102
RTVSPropertyOp48
 70
     1
102
RTVSPropertyOp49
 70
     1
102
RTVSPropertyOp50
 70
     1
102
RTVSPropertyOp51
 70
     0
102
RTVSPropertyOp52
 70
     0
102
RTVSPropertyOp53
 70
     1
102
RTVSPropertyOp54
 70
     1
102
RTVSPropertyOp55
 70
     1
102
RTVSPropertyOp56
 70
     1
102
RTVSPropertyOp57
 70
     1
102
RTVSPost2010Prop28
280
     0
102
RTVSPost2010PropOp28
 70
     1
102
RTVSPost2010Prop29
280
     1
102
RTVSPost2010PropOp29
 70
     1
102
RTVSPost2010Prop30
280
     1
102
RTVSPost2010PropOp30
 70
     1
102
RTVSPost2010Prop31
280
     0
102
RTVSPost2010PropOp31
 70
     1
102
RTVSPost2010Prop32
280
     0
102
RTVSPost2010PropOp32
 70
     1
102
RTVSPost2010Prop33
280
     0
102
RTVSPost2010PropOp33
 70
     1
102
RTVSPost2010Prop34
280
     0
102
RTVSPost2010PropOp34
 70
     1
102
RTVSPost2010Prop35
280
     0
102
RTVSPost2010PropOp35
 70
     1
102
RTVSPost2010Prop36
280
     0
102
RTVSPost2010PropOp36
 70
     1
102
RTVSPost2010Prop37
 90
       50
102
RTVSPost2010PropOp37
 70
     1
102
RTVSPost2010Prop38
140
0.0
102
RTVSPost2010PropOp38
 70
     1
102
RTVSPost2010Prop39
140
1.0
102
RTVSPost2010PropOp39
 70
     1
102
RTVSPost2010Prop40
 90
        0
102
RTVSPost2010PropOp40
 70
     1
102
RTVSPost2010Prop41ColorIndex
 90
       18
102
RTVSPost2010Prop41ColorRGB
 90
        0
102
RTVSPost2010PropOp41
 70
     1
102
RTVSPost2010Prop42
 90
       50
102
RTVSPost2010PropOp42
 70
     1
102
RTVSPost2010Prop43
 90
        3
102
RTVSPost2010PropOp43
 70
     1
102
RTVSPost2010Prop44ColorIndex
 90
        5
102
RTVSPost2010Prop44ColorRGB
 90
      255
102
RTVSPost2010PropOp44
 70
     1
102
RTVSPost2010Prop45
280
     0
102
RTVSPost2010PropOp45
 70
     1
102
RTVSPost2010Prop46
 90
       50
102
RTVSPost2010PropOp46
 70
     1
102
RTVSPost2010Prop47
 90
       50
102
RTVSPost2010PropOp47
 70
     1
102
RTVSPost2010Prop48
 90
       50
102
RTVSPost2010PropOp48
 70
     1
102
RTVSPost2010Prop49
280
     0
102
RTVSPost2010PropOp49
 70
     1
102
RTVSPost2010Prop50
 90
       50
102
RTVSPost2010PropOp50
 70
     1
102
RTVSPost2010Prop51ColorIndex
 90
      256
102
RTVSPost2010Prop51ColorRGB
 90
-16777216
102
RTVSPost2010PropOp51
 70
     0
102
RTVSPost2010Prop52
140
1.0
102
RTVSPost2010PropOp52
 70
     0
102
RTVSPost2010Prop53
 90
        2
102
RTVSPost2010PropOp53
 70
     1
102
RTVSPost2010Prop54
  1
strokes_ogs.tif
102
RTVSPost2010PropOp54
 70
     1
102
RTVSPost2010Prop55
280
     0
102
RTVSPost2010PropOp55
 70
     1
102
RTVSPost2010Prop56
140
1.0
102
RTVSPost2010PropOp56
 70
     1
102
RTVSPost2010Prop57
140
1.0
102
RTVSPost2010PropOp57
 70
     1
  0
XRECORD
  5
279
102
{ACAD_REACTORS
330
278
102
}
330
278
100
AcDbXrecord
280
     1
102
RTVSPropertyOp0
 70
     1
102
RTVSPropertyOp1
 70
     1
102
RTVSPropertyOp2
 70
     1
102
RTVSPropertyOp3
 70
     1
102
RTVSPropertyOp4
 70
     1
102
RTVSPropertyOp5
 70
     1
102
RTVSPropertyOp6
 70
     1
102
RTVSPropertyOp7
 70
     1
102
RTVSPropertyOp8
 70
     1
102
RTVSPropertyOp9
 70
     1
102
RTVSPropertyOp10
 70
     1
102
RTVSPropertyOp11
 70
     1
102
RTVSPropertyOp12
 70
     1
102
RTVSPropertyOp13
 70
     1
102
RTVSPropertyOp14
 70
     1
102
RTVSPropertyOp15
 70
     1
102
RTVSPropertyOp16
 70
     1
102
RTVSPropertyOp17
 70
     1
102
RTVSPropertyOp18
 70
     1
102
RTVSPropertyOp19
 70
     1
102
RTVSPropertyOp20
 70
     1
102
RTVSPropertyOp21
 70
     1
102
RTVSPropertyOp22
 70
     1
102
RTVSPropertyOp23
 70
     1
102
RTVSPropertyOp24
 70
     1
102
RTVSPropertyOp25
 70
     1
102
RTVSPropertyOp26
 70
     1
102
RTVSPropertyOp27
 70
     1
102
RTVSPropertyOp28
 70
     1
102
RTVSPropertyOp29
 70
     1
102
RTVSPropertyOp30
 70
     1
102
RTVSPropertyOp31
 70
     1
102
RTVSPropertyOp32
 70
     1
102
RTVSPropertyOp33
 70
     1
102
RTVSPropertyOp34
 70
     1
102
RTVSPropertyOp35
 70
     1
102
RTVSPropertyOp36
 70
     1
102
RTVSPropertyOp37
 70
     1
102
RTVSPropertyOp38
 70
     1
102
RTVSPropertyOp39
 70
     1
102
RTVSPropertyOp40
 70
     1
102
RTVSPropertyOp41
 70
     1
102
RTVSPropertyOp42
 70
     1
102
RTVSPropertyOp43
 70
     1
102
RTVSPropertyOp44
 70
     1
102
RTVSPropertyOp45
 70
     1
102
RTVSPropertyOp46
 70
     1
102
RTVSPropertyOp47
 70
     1
102
RTVSPropertyOp48
 70
     1
102
RTVSPropertyOp49
 70
     1
102
RTVSPropertyOp50
 70
     1
102
RTVSPropertyOp51
 70
     0
102
RTVSPropertyOp52
 70
     0
102
RTVSPropertyOp53
 70
     1
102
RTVSPropertyOp54
 70
     1
102
RTVSPropertyOp55
 70
     1
102
RTVSPropertyOp56
 70
     1
102
RTVSPropertyOp57
 70
     1
102
RTVSPost2010Prop28
280
     0
102
RTVSPost2010PropOp28
 70
     1
102
RTVSPost2010Prop29
280
     1
102
RTVSPost2010PropOp29
 70
     1
102
RTVSPost2010Prop30
280
     1
102
RTVSPost2010PropOp30
 70
     1
102
RTVSPost2010Prop31
280
     0
102
RTVSPost2010PropOp31
 70
     1
102
RTVSPost2010Prop32
280
     0
102
RTVSPost2010PropOp32
 70
     1
102
RTVSPost2010Prop33
280
     0
102
RTVSPost2010PropOp33
 70
     1
102
RTVSPost2010Prop34
280
     0
102
RTVSPost2010PropOp34
 70
     1
102
RTVSPost2010Prop35
280
     0
102
RTVSPost2010PropOp35
 70
     1
102
RTVSPost2010Prop36
280
     0
102
RTVSPost2010PropOp36
 70
     1
102
RTVSPost2010Prop37
 90
       50
102
RTVSPost2010PropOp37
 70
     1
102
RTVSPost2010Prop38
140
0.0
102
RTVSPost2010PropOp38
 70
     1
102
RTVSPost2010Prop39
140
1.0
102
RTVSPost2010PropOp39
 70
     1
102
RTVSPost2010Prop40
 90
        0
102
RTVSPost2010PropOp40
 70
     1
102
RTVSPost2010Prop41ColorIndex
 90
       18
102
RTVSPost2010Prop41ColorRGB
 90
        0
102
RTVSPost2010PropOp41
 70
     1
102
RTVSPost2010Prop42
 90
       50
102
RTVSPost2010PropOp42
 70
     1
102
RTVSPost2010Prop43
 90
        3
102
RTVSPost2010PropOp43
 70
     1
102
RTVSPost2010Prop44ColorIndex
 90
        5
102
RTVSPost2010Prop44ColorRGB
 90
      255
102
RTVSPost2010PropOp44
 70
     1
102
RTVSPost2010Prop45
280
     0
102
RTVSPost2010PropOp45
 70
     1
102
RTVSPost2010Prop46
 90
       50
102
RTVSPost2010PropOp46
 70
     1
102
RTVSPost2010Prop47
 90
       50
102
RTVSPost2010PropOp47
 70
     1
102
RTVSPost2010Prop48
 90
       50
102
RTVSPost2010PropOp48
 70
     1
102
RTVSPost2010Prop49
280
     0
102
RTVSPost2010PropOp49
 70
     1
102
RTVSPost2010Prop50
 90
       50
102
RTVSPost2010PropOp50
 70
     1
102
RTVSPost2010Prop51ColorIndex
 90
      256
102
RTVSPost2010Prop51ColorRGB
 90
-16777216
102
RTVSPost2010PropOp51
 70
     0
102
RTVSPost2010Prop52
140
1.0
102
RTVSPost2010PropOp52
 70
     0
102
RTVSPost2010Prop53
 90
        2
102
RTVSPost2010PropOp53
 70
     1
102
RTVSPost2010Prop54
  1
strokes_ogs.tif
102
RTVSPost2010PropOp54
 70
     1
102
RTVSPost2010Prop55
280
     0
102
RTVSPost2010PropOp55
 70
     1
102
RTVSPost2010Prop56
140
1.0
102
RTVSPost2010PropOp56
 70
     1
102
RTVSPost2010Prop57
140
1.0
102
RTVSPost2010PropOp57
 70
     1
  0
XRECORD
  5
27F
102
{ACAD_REACTORS
330
27E
102
}
330
27E
100
AcDbXrecord
280
     1
102
RTVSPropertyOp0
 70
     1
102
RTVSPropertyOp1
 70
     1
102
RTVSPropertyOp2
 70
     1
102
RTVSPropertyOp3
 70
     1
102
RTVSPropertyOp4
 70
     1
102
RTVSPropertyOp5
 70
     1
102
RTVSPropertyOp6
 70
     1
102
RTVSPropertyOp7
 70
     1
102
RTVSPropertyOp8
 70
     1
102
RTVSPropertyOp9
 70
     1
102
RTVSPropertyOp10
 70
     1
102
RTVSPropertyOp11
 70
     1
102
RTVSPropertyOp12
 70
     1
102
RTVSPropertyOp13
 70
     1
102
RTVSPropertyOp14
 70
     1
102
RTVSPropertyOp15
 70
     1
102
RTVSPropertyOp16
 70
     1
102
RTVSPropertyOp17
 70
     1
102
RTVSPropertyOp18
 70
     1
102
RTVSPropertyOp19
 70
     1
102
RTVSPropertyOp20
 70
     1
102
RTVSPropertyOp21
 70
     1
102
RTVSPropertyOp22
 70
     1
102
RTVSPropertyOp23
 70
     1
102
RTVSPropertyOp24
 70
     1
102
RTVSPropertyOp25
 70
     1
102
RTVSPropertyOp26
 70
     1
102
RTVSPropertyOp27
 70
     1
102
RTVSPropertyOp28
 70
     1
102
RTVSPropertyOp29
 70
     1
102
RTVSPropertyOp30
 70
     1
102
RTVSPropertyOp31
 70
     1
102
RTVSPropertyOp32
 70
     1
102
RTVSPropertyOp33
 70
     1
102
RTVSPropertyOp34
 70
     1
102
RTVSPropertyOp35
 70
     1
102
RTVSPropertyOp36
 70
     1
102
RTVSPropertyOp37
 70
     1
102
RTVSPropertyOp38
 70
     1
102
RTVSPropertyOp39
 70
     1
102
RTVSPropertyOp40
 70
     1
102
RTVSPropertyOp41
 70
     1
102
RTVSPropertyOp42
 70
     1
102
RTVSPropertyOp43
 70
     1
102
RTVSPropertyOp44
 70
     1
102
RTVSPropertyOp45
 70
     1
102
RTVSPropertyOp46
 70
     1
102
RTVSPropertyOp47
 70
     1
102
RTVSPropertyOp48
 70
     1
102
RTVSPropertyOp49
 70
     1
102
RTVSPropertyOp50
 70
     1
102
RTVSPropertyOp51
 70
     0
102
RTVSPropertyOp52
 70
     0
102
RTVSPropertyOp53
 70
     1
102
RTVSPropertyOp54
 70
     1
102
RTVSPropertyOp55
 70
     1
102
RTVSPropertyOp56
 70
     1
102
RTVSPropertyOp57
 70
     1
102
RTVSPost2010Prop28
280
     0
102
RTVSPost2010PropOp28
 70
     1
102
RTVSPost2010Prop29
280
     1
102
RTVSPost2010PropOp29
 70
     1
102
RTVSPost2010Prop30
280
     1
102
RTVSPost2010PropOp30
 70
     1
102
RTVSPost2010Prop31
280
     0
102
RTVSPost2010PropOp31
 70
     1
102
RTVSPost2010Prop32
280
     0
102
RTVSPost2010PropOp32
 70
     1
102
RTVSPost2010Prop33
280
     0
102
RTVSPost2010PropOp33
 70
     1
102
RTVSPost2010Prop34
280
     0
102
RTVSPost2010PropOp34
 70
     1
102
RTVSPost2010Prop35
280
     0
102
RTVSPost2010PropOp35
 70
     1
102
RTVSPost2010Prop36
280
     0
102
RTVSPost2010PropOp36
 70
     1
102
RTVSPost2010Prop37
 90
       50
102
RTVSPost2010PropOp37
 70
     1
102
RTVSPost2010Prop38
140
0.0
102
RTVSPost2010PropOp38
 70
     1
102
RTVSPost2010Prop39
140
1.0
102
RTVSPost2010PropOp39
 70
     1
102
RTVSPost2010Prop40
 90
        0
102
RTVSPost2010PropOp40
 70
     1
102
RTVSPost2010Prop41ColorIndex
 90
       18
102
RTVSPost2010Prop41ColorRGB
 90
        0
102
RTVSPost2010PropOp41
 70
     1
102
RTVSPost2010Prop42
 90
       50
102
RTVSPost2010PropOp42
 70
     1
102
RTVSPost2010Prop43
 90
        3
102
RTVSPost2010PropOp43
 70
     1
102
RTVSPost2010Prop44ColorIndex
 90
        5
102
RTVSPost2010Prop44ColorRGB
 90
      255
102
RTVSPost2010PropOp44
 70
     1
102
RTVSPost2010Prop45
280
     0
102
RTVSPost2010PropOp45
 70
     1
102
RTVSPost2010Prop46
 90
       50
102
RTVSPost2010PropOp46
 70
     1
102
RTVSPost2010Prop47
 90
       50
102
RTVSPost2010PropOp47
 70
     1
102
RTVSPost2010Prop48
 90
       50
102
RTVSPost2010PropOp48
 70
     1
102
RTVSPost2010Prop49
280
     0
102
RTVSPost2010PropOp49
 70
     1
102
RTVSPost2010Prop50
 90
       50
102
RTVSPost2010PropOp50
 70
     1
102
RTVSPost2010Prop51ColorIndex
 90
      256
102
RTVSPost2010Prop51ColorRGB
 90
-16777216
102
RTVSPost2010PropOp51
 70
     0
102
RTVSPost2010Prop52
140
1.0
102
RTVSPost2010PropOp52
 70
     0
102
RTVSPost2010Prop53
 90
        2
102
RTVSPost2010PropOp53
 70
     1
102
RTVSPost2010Prop54
  1
strokes_ogs.tif
102
RTVSPost2010PropOp54
 70
     1
102
RTVSPost2010Prop55
280
     0
102
RTVSPost2010PropOp55
 70
     1
102
RTVSPost2010Prop56
140
1.0
102
RTVSPost2010PropOp56
 70
     1
102
RTVSPost2010Prop57
140
1.0
102
RTVSPost2010PropOp57
 70
     1
  0
XRECORD
  5
293
102
{ACAD_REACTORS
330
292
102
}
330
292
100
AcDbXrecord
280
     1
102
RTVSPropertyOp0
 70
     0
102
RTVSPropertyOp1
 70
     0
102
RTVSPropertyOp2
 70
     0
102
RTVSPropertyOp3
 70
     0
102
RTVSPropertyOp4
 70
     0
102
RTVSPropertyOp5
 70
     0
102
RTVSPropertyOp6
 70
     0
102
RTVSPropertyOp7
 70
     0
102
RTVSPropertyOp8
 70
     0
102
RTVSPropertyOp9
 70
     0
102
RTVSPropertyOp10
 70
     0
102
RTVSPropertyOp11
 70
     0
102
RTVSPropertyOp12
 70
     0
102
RTVSPropertyOp13
 70
     0
102
RTVSPropertyOp14
 70
     2
102
RTVSPropertyOp15
 70
     0
102
RTVSPropertyOp16
 70
     0
102
RTVSPropertyOp17
 70
     0
102
RTVSPropertyOp18
 70
     0
102
RTVSPropertyOp19
 70
     0
102
RTVSPropertyOp20
 70
     0
102
RTVSPropertyOp21
 70
     0
102
RTVSPropertyOp22
 70
     0
102
RTVSPropertyOp23
 70
     0
102
RTVSPropertyOp24
 70
     0
102
RTVSPropertyOp25
 70
     0
102
RTVSPropertyOp26
 70
     0
102
RTVSPropertyOp27
 70
     0
102
RTVSPropertyOp28
 70
     0
102
RTVSPropertyOp29
 70
     0
102
RTVSPropertyOp30
 70
     0
102
RTVSPropertyOp31
 70
     0
102
RTVSPropertyOp32
 70
     0
102
RTVSPropertyOp33
 70
     0
102
RTVSPropertyOp34
 70
     0
102
RTVSPropertyOp35
 70
     0
102
RTVSPropertyOp36
 70
     0
102
RTVSPropertyOp37
 70
     0
102
RTVSPropertyOp38
 70
     0
102
RTVSPropertyOp39
 70
     0
102
RTVSPropertyOp40
 70
     0
102
RTVSPropertyOp41
 70
     0
102
RTVSPropertyOp42
 70
     0
102
RTVSPropertyOp43
 70
     0
102
RTVSPropertyOp44
 70
     0
102
RTVSPropertyOp45
 70
     0
102
RTVSPropertyOp46
 70
     0
102
RTVSPropertyOp47
 70
     0
102
RTVSPropertyOp48
 70
     0
102
RTVSPropertyOp49
 70
     0
102
RTVSPropertyOp50
 70
     0
102
RTVSPropertyOp51
 70
     0
102
RTVSPropertyOp52
 70
     0
102
RTVSPropertyOp53
 70
     0
102
RTVSPropertyOp54
 70
     0
102
RTVSPropertyOp55
 70
     0
102
RTVSPropertyOp56
 70
     0
102
RTVSPropertyOp57
 70
     0
102
RTVSPost2010Prop28
280
     0
102
RTVSPost2010PropOp28
 70
     0
102
RTVSPost2010Prop29
280
     1
102
RTVSPost2010PropOp29
 70
     0
102
RTVSPost2010Prop30
280
     1
102
RTVSPost2010PropOp30
 70
     0
102
RTVSPost2010Prop31
280
     0
102
RTVSPost2010PropOp31
 70
     0
102
RTVSPost2010Prop32
280
     0
102
RTVSPost2010PropOp32
 70
     0
102
RTVSPost2010Prop33
280
     0
102
RTVSPost2010PropOp33
 70
     0
102
RTVSPost2010Prop34
280
     0
102
RTVSPost2010PropOp34
 70
     0
102
RTVSPost2010Prop35
280
     0
102
RTVSPost2010PropOp35
 70
     0
102
RTVSPost2010Prop36
280
     0
102
RTVSPost2010PropOp36
 70
     0
102
RTVSPost2010Prop37
 90
       50
102
RTVSPost2010PropOp37
 70
     0
102
RTVSPost2010Prop38
140
0.0
102
RTVSPost2010PropOp38
 70
     0
102
RTVSPost2010Prop39
140
1.0
102
RTVSPost2010PropOp39
 70
     0
102
RTVSPost2010Prop40
 90
        0
102
RTVSPost2010PropOp40
 70
     0
102
RTVSPost2010Prop41ColorIndex
 90
       18
102
RTVSPost2010Prop41ColorRGB
 90
        0
102
RTVSPost2010PropOp41
 70
     0
102
RTVSPost2010Prop42
 90
       50
102
RTVSPost2010PropOp42
 70
     0
102
RTVSPost2010Prop43
 90
        3
102
RTVSPost2010PropOp43
 70
     0
102
RTVSPost2010Prop44ColorIndex
 90
        5
102
RTVSPost2010Prop44ColorRGB
 90
      255
102
RTVSPost2010PropOp44
 70
     0
102
RTVSPost2010Prop45
280
     0
102
RTVSPost2010PropOp45
 70
     0
102
RTVSPost2010Prop46
 90
       50
102
RTVSPost2010PropOp46
 70
     0
102
RTVSPost2010Prop47
 90
       50
102
RTVSPost2010PropOp47
 70
     0
102
RTVSPost2010Prop48
 90
       50
102
RTVSPost2010PropOp48
 70
     0
102
RTVSPost2010Prop49
280
     0
102
RTVSPost2010PropOp49
 70
     0
102
RTVSPost2010Prop50
 90
       50
102
RTVSPost2010PropOp50
 70
     0
102
RTVSPost2010Prop51ColorIndex
 90
      256
102
RTVSPost2010Prop51ColorRGB
 90
-16777216
102
RTVSPost2010PropOp51
 70
     0
102
RTVSPost2010Prop52
140
1.0
102
RTVSPost2010PropOp52
 70
     0
102
RTVSPost2010Prop53
 90
        2
102
RTVSPost2010PropOp53
 70
     0
102
RTVSPost2010Prop54
  1
strokes_ogs.tif
102
RTVSPost2010PropOp54
 70
     0
102
RTVSPost2010Prop55
280
     0
102
RTVSPost2010PropOp55
 70
     0
102
RTVSPost2010Prop56
140
1.0
102
RTVSPost2010PropOp56
 70
     0
102
RTVSPost2010Prop57
140
1.0
102
RTVSPost2010PropOp57
 70
     0
  0
XRECORD
  5
28D
102
{ACAD_REACTORS
330
28C
102
}
330
28C
100
AcDbXrecord
280
     1
102
RTVSPropertyOp0
 70
     1
102
RTVSPropertyOp1
 70
     1
102
RTVSPropertyOp2
 70
     1
102
RTVSPropertyOp3
 70
     1
102
RTVSPropertyOp4
 70
     1
102
RTVSPropertyOp5
 70
     1
102
RTVSPropertyOp6
 70
     1
102
RTVSPropertyOp7
 70
     1
102
RTVSPropertyOp8
 70
     1
102
RTVSPropertyOp9
 70
     1
102
RTVSPropertyOp10
 70
     1
102
RTVSPropertyOp11
 70
     1
102
RTVSPropertyOp12
 70
     1
102
RTVSPropertyOp13
 70
     1
102
RTVSPropertyOp14
 70
     1
102
RTVSPropertyOp15
 70
     1
102
RTVSPropertyOp16
 70
     1
102
RTVSPropertyOp17
 70
     1
102
RTVSPropertyOp18
 70
     1
102
RTVSPropertyOp19
 70
     1
102
RTVSPropertyOp20
 70
     1
102
RTVSPropertyOp21
 70
     1
102
RTVSPropertyOp22
 70
     1
102
RTVSPropertyOp23
 70
     1
102
RTVSPropertyOp24
 70
     1
102
RTVSPropertyOp25
 70
     1
102
RTVSPropertyOp26
 70
     1
102
RTVSPropertyOp27
 70
     1
102
RTVSPropertyOp28
 70
     1
102
RTVSPropertyOp29
 70
     1
102
RTVSPropertyOp30
 70
     1
102
RTVSPropertyOp31
 70
     1
102
RTVSPropertyOp32
 70
     1
102
RTVSPropertyOp33
 70
     1
102
RTVSPropertyOp34
 70
     1
102
RTVSPropertyOp35
 70
     1
102
RTVSPropertyOp36
 70
     1
102
RTVSPropertyOp37
 70
     1
102
RTVSPropertyOp38
 70
     1
102
RTVSPropertyOp39
 70
     1
102
RTVSPropertyOp40
 70
     1
102
RTVSPropertyOp41
 70
     1
102
RTVSPropertyOp42
 70
     1
102
RTVSPropertyOp43
 70
     1
102
RTVSPropertyOp44
 70
     1
102
RTVSPropertyOp45
 70
     1
102
RTVSPropertyOp46
 70
     1
102
RTVSPropertyOp47
 70
     1
102
RTVSPropertyOp48
 70
     1
102
RTVSPropertyOp49
 70
     1
102
RTVSPropertyOp50
 70
     1
102
RTVSPropertyOp51
 70
     0
102
RTVSPropertyOp52
 70
     0
102
RTVSPropertyOp53
 70
     1
102
RTVSPropertyOp54
 70
     1
102
RTVSPropertyOp55
 70
     1
102
RTVSPropertyOp56
 70
     1
102
RTVSPropertyOp57
 70
     1
102
RTVSPost2010Prop28
280
     0
102
RTVSPost2010PropOp28
 70
     1
102
RTVSPost2010Prop29
280
     1
102
RTVSPost2010PropOp29
 70
     1
102
RTVSPost2010Prop30
280
     1
102
RTVSPost2010PropOp30
 70
     1
102
RTVSPost2010Prop31
280
     0
102
RTVSPost2010PropOp31
 70
     1
102
RTVSPost2010Prop32
280
     0
102
RTVSPost2010PropOp32
 70
     1
102
RTVSPost2010Prop33
280
     0
102
RTVSPost2010PropOp33
 70
     1
102
RTVSPost2010Prop34
280
     0
102
RTVSPost2010PropOp34
 70
     1
102
RTVSPost2010Prop35
280
     0
102
RTVSPost2010PropOp35
 70
     1
102
RTVSPost2010Prop36
280
     0
102
RTVSPost2010PropOp36
 70
     1
102
RTVSPost2010Prop37
 90
       50
102
RTVSPost2010PropOp37
 70
     1
102
RTVSPost2010Prop38
140
0.0
102
RTVSPost2010PropOp38
 70
     1
102
RTVSPost2010Prop39
140
1.0
102
RTVSPost2010PropOp39
 70
     1
102
RTVSPost2010Prop40
 90
        0
102
RTVSPost2010PropOp40
 70
     1
102
RTVSPost2010Prop41ColorIndex
 90
       18
102
RTVSPost2010Prop41ColorRGB
 90
        0
102
RTVSPost2010PropOp41
 70
     1
102
RTVSPost2010Prop42
 90
       50
102
RTVSPost2010PropOp42
 70
     1
102
RTVSPost2010Prop43
 90
        3
102
RTVSPost2010PropOp43
 70
     1
102
RTVSPost2010Prop44ColorIndex
 90
        5
102
RTVSPost2010Prop44ColorRGB
 90
      255
102
RTVSPost2010PropOp44
 70
     1
102
RTVSPost2010Prop45
280
     0
102
RTVSPost2010PropOp45
 70
     1
102
RTVSPost2010Prop46
 90
       50
102
RTVSPost2010PropOp46
 70
     1
102
RTVSPost2010Prop47
 90
       50
102
RTVSPost2010PropOp47
 70
     1
102
RTVSPost2010Prop48
 90
       50
102
RTVSPost2010PropOp48
 70
     1
102
RTVSPost2010Prop49
280
     0
102
RTVSPost2010PropOp49
 70
     1
102
RTVSPost2010Prop50
 90
       50
102
RTVSPost2010PropOp50
 70
     1
102
RTVSPost2010Prop51ColorIndex
 90
      256
102
RTVSPost2010Prop51ColorRGB
 90
-16777216
102
RTVSPost2010PropOp51
 70
     0
102
RTVSPost2010Prop52
140
1.0
102
RTVSPost2010PropOp52
 70
     0
102
RTVSPost2010Prop53
 90
        2
102
RTVSPost2010PropOp53
 70
     1
102
RTVSPost2010Prop54
  1
strokes_ogs.tif
102
RTVSPost2010PropOp54
 70
     1
102
RTVSPost2010Prop55
280
     0
102
RTVSPost2010PropOp55
 70
     1
102
RTVSPost2010Prop56
140
1.0
102
RTVSPost2010PropOp56
 70
     1
102
RTVSPost2010Prop57
140
1.0
102
RTVSPost2010PropOp57
 70
     1
  0
XRECORD
  5
295
102
{ACAD_REACTORS
330
294
102
}
330
294
100
AcDbXrecord
280
     1
102
RTVSPropertyOp0
 70
     0
102
RTVSPropertyOp1
 70
     0
102
RTVSPropertyOp2
 70
     0
102
RTVSPropertyOp3
 70
     0
102
RTVSPropertyOp4
 70
     0
102
RTVSPropertyOp5
 70
     0
102
RTVSPropertyOp6
 70
     0
102
RTVSPropertyOp7
 70
     0
102
RTVSPropertyOp8
 70
     0
102
RTVSPropertyOp9
 70
     0
102
RTVSPropertyOp10
 70
     0
102
RTVSPropertyOp11
 70
     0
102
RTVSPropertyOp12
 70
     0
102
RTVSPropertyOp13
 70
     0
102
RTVSPropertyOp14
 70
     2
102
RTVSPropertyOp15
 70
     0
102
RTVSPropertyOp16
 70
     0
102
RTVSPropertyOp17
 70
     0
102
RTVSPropertyOp18
 70
     0
102
RTVSPropertyOp19
 70
     0
102
RTVSPropertyOp20
 70
     0
102
RTVSPropertyOp21
 70
     0
102
RTVSPropertyOp22
 70
     0
102
RTVSPropertyOp23
 70
     0
102
RTVSPropertyOp24
 70
     0
102
RTVSPropertyOp25
 70
     0
102
RTVSPropertyOp26
 70
     0
102
RTVSPropertyOp27
 70
     0
102
RTVSPropertyOp28
 70
     0
102
RTVSPropertyOp29
 70
     0
102
RTVSPropertyOp30
 70
     0
102
RTVSPropertyOp31
 70
     0
102
RTVSPropertyOp32
 70
     0
102
RTVSPropertyOp33
 70
     0
102
RTVSPropertyOp34
 70
     0
102
RTVSPropertyOp35
 70
     0
102
RTVSPropertyOp36
 70
     0
102
RTVSPropertyOp37
 70
     0
102
RTVSPropertyOp38
 70
     0
102
RTVSPropertyOp39
 70
     0
102
RTVSPropertyOp40
 70
     0
102
RTVSPropertyOp41
 70
     0
102
RTVSPropertyOp42
 70
     0
102
RTVSPropertyOp43
 70
     0
102
RTVSPropertyOp44
 70
     0
102
RTVSPropertyOp45
 70
     0
102
RTVSPropertyOp46
 70
     0
102
RTVSPropertyOp47
 70
     0
102
RTVSPropertyOp48
 70
     0
102
RTVSPropertyOp49
 70
     0
102
RTVSPropertyOp50
 70
     0
102
RTVSPropertyOp51
 70
     0
102
RTVSPropertyOp52
 70
     0
102
RTVSPropertyOp53
 70
     0
102
RTVSPropertyOp54
 70
     0
102
RTVSPropertyOp55
 70
     0
102
RTVSPropertyOp56
 70
     0
102
RTVSPropertyOp57
 70
     0
102
RTVSPost2010Prop28
280
     0
102
RTVSPost2010PropOp28
 70
     0
102
RTVSPost2010Prop29
280
     1
102
RTVSPost2010PropOp29
 70
     0
102
RTVSPost2010Prop30
280
     1
102
RTVSPost2010PropOp30
 70
     0
102
RTVSPost2010Prop31
280
     0
102
RTVSPost2010PropOp31
 70
     0
102
RTVSPost2010Prop32
280
     0
102
RTVSPost2010PropOp32
 70
     0
102
RTVSPost2010Prop33
280
     0
102
RTVSPost2010PropOp33
 70
     0
102
RTVSPost2010Prop34
280
     0
102
RTVSPost2010PropOp34
 70
     0
102
RTVSPost2010Prop35
280
     0
102
RTVSPost2010PropOp35
 70
     0
102
RTVSPost2010Prop36
280
     0
102
RTVSPost2010PropOp36
 70
     0
102
RTVSPost2010Prop37
 90
       50
102
RTVSPost2010PropOp37
 70
     0
102
RTVSPost2010Prop38
140
0.0
102
RTVSPost2010PropOp38
 70
     0
102
RTVSPost2010Prop39
140
1.0
102
RTVSPost2010PropOp39
 70
     0
102
RTVSPost2010Prop40
 90
        0
102
RTVSPost2010PropOp40
 70
     0
102
RTVSPost2010Prop41ColorIndex
 90
       18
102
RTVSPost2010Prop41ColorRGB
 90
        0
102
RTVSPost2010PropOp41
 70
     0
102
RTVSPost2010Prop42
 90
       50
102
RTVSPost2010PropOp42
 70
     0
102
RTVSPost2010Prop43
 90
        3
102
RTVSPost2010PropOp43
 70
     0
102
RTVSPost2010Prop44ColorIndex
 90
        5
102
RTVSPost2010Prop44ColorRGB
 90
      255
102
RTVSPost2010PropOp44
 70
     0
102
RTVSPost2010Prop45
280
     0
102
RTVSPost2010PropOp45
 70
     0
102
RTVSPost2010Prop46
 90
       50
102
RTVSPost2010PropOp46
 70
     0
102
RTVSPost2010Prop47
 90
       50
102
RTVSPost2010PropOp47
 70
     0
102
RTVSPost2010Prop48
 90
       50
102
RTVSPost2010PropOp48
 70
     0
102
RTVSPost2010Prop49
280
     0
102
RTVSPost2010PropOp49
 70
     0
102
RTVSPost2010Prop50
 90
       50
102
RTVSPost2010PropOp50
 70
     0
102
RTVSPost2010Prop51ColorIndex
 90
      256
102
RTVSPost2010Prop51ColorRGB
 90
-16777216
102
RTVSPost2010PropOp51
 70
     0
102
RTVSPost2010Prop52
140
1.0
102
RTVSPost2010PropOp52
 70
     0
102
RTVSPost2010Prop53
 90
        2
102
RTVSPost2010PropOp53
 70
     0
102
RTVSPost2010Prop54
  1
strokes_ogs.tif
102
RTVSPost2010PropOp54
 70
     0
102
RTVSPost2010Prop55
280
     0
102
RTVSPost2010PropOp55
 70
     0
102
RTVSPost2010Prop56
140
1.0
102
RTVSPost2010PropOp56
 70
     0
102
RTVSPost2010Prop57
140
1.0
102
RTVSPost2010PropOp57
 70
     0
  0
XRECORD
  5
283
102
{ACAD_REACTORS
330
282
102
}
330
282
100
AcDbXrecord
280
     1
102
RTVSPropertyOp0
 70
     1
102
RTVSPropertyOp1
 70
     1
102
RTVSPropertyOp2
 70
     1
102
RTVSPropertyOp3
 70
     1
102
RTVSPropertyOp4
 70
     1
102
RTVSPropertyOp5
 70
     1
102
RTVSPropertyOp6
 70
     1
102
RTVSPropertyOp7
 70
     1
102
RTVSPropertyOp8
 70
     1
102
RTVSPropertyOp9
 70
     1
102
RTVSPropertyOp10
 70
     1
102
RTVSPropertyOp11
 70
     1
102
RTVSPropertyOp12
 70
     1
102
RTVSPropertyOp13
 70
     1
102
RTVSPropertyOp14
 70
     1
102
RTVSPropertyOp15
 70
     1
102
RTVSPropertyOp16
 70
     1
102
RTVSPropertyOp17
 70
     1
102
RTVSPropertyOp18
 70
     1
102
RTVSPropertyOp19
 70
     1
102
RTVSPropertyOp20
 70
     1
102
RTVSPropertyOp21
 70
     1
102
RTVSPropertyOp22
 70
     1
102
RTVSPropertyOp23
 70
     1
102
RTVSPropertyOp24
 70
     1
102
RTVSPropertyOp25
 70
     1
102
RTVSPropertyOp26
 70
     1
102
RTVSPropertyOp27
 70
     1
102
RTVSPropertyOp28
 70
     1
102
RTVSPropertyOp29
 70
     1
102
RTVSPropertyOp30
 70
     1
102
RTVSPropertyOp31
 70
     1
102
RTVSPropertyOp32
 70
     1
102
RTVSPropertyOp33
 70
     1
102
RTVSPropertyOp34
 70
     1
102
RTVSPropertyOp35
 70
     1
102
RTVSPropertyOp36
 70
     1
102
RTVSPropertyOp37
 70
     1
102
RTVSPropertyOp38
 70
     1
102
RTVSPropertyOp39
 70
     1
102
RTVSPropertyOp40
 70
     1
102
RTVSPropertyOp41
 70
     1
102
RTVSPropertyOp42
 70
     1
102
RTVSPropertyOp43
 70
     1
102
RTVSPropertyOp44
 70
     1
102
RTVSPropertyOp45
 70
     1
102
RTVSPropertyOp46
 70
     1
102
RTVSPropertyOp47
 70
     1
102
RTVSPropertyOp48
 70
     1
102
RTVSPropertyOp49
 70
     1
102
RTVSPropertyOp50
 70
     1
102
RTVSPropertyOp51
 70
     0
102
RTVSPropertyOp52
 70
     0
102
RTVSPropertyOp53
 70
     1
102
RTVSPropertyOp54
 70
     1
102
RTVSPropertyOp55
 70
     1
102
RTVSPropertyOp56
 70
     1
102
RTVSPropertyOp57
 70
     1
102
RTVSPost2010Prop28
280
     0
102
RTVSPost2010PropOp28
 70
     1
102
RTVSPost2010Prop29
280
     1
102
RTVSPost2010PropOp29
 70
     1
102
RTVSPost2010Prop30
280
     1
102
RTVSPost2010PropOp30
 70
     1
102
RTVSPost2010Prop31
280
     0
102
RTVSPost2010PropOp31
 70
     1
102
RTVSPost2010Prop32
280
     0
102
RTVSPost2010PropOp32
 70
     1
102
RTVSPost2010Prop33
280
     0
102
RTVSPost2010PropOp33
 70
     1
102
RTVSPost2010Prop34
280
     0
102
RTVSPost2010PropOp34
 70
     1
102
RTVSPost2010Prop35
280
     0
102
RTVSPost2010PropOp35
 70
     1
102
RTVSPost2010Prop36
280
     0
102
RTVSPost2010PropOp36
 70
     1
102
RTVSPost2010Prop37
 90
       50
102
RTVSPost2010PropOp37
 70
     1
102
RTVSPost2010Prop38
140
0.0
102
RTVSPost2010PropOp38
 70
     1
102
RTVSPost2010Prop39
140
1.0
102
RTVSPost2010PropOp39
 70
     1
102
RTVSPost2010Prop40
 90
        0
102
RTVSPost2010PropOp40
 70
     1
102
RTVSPost2010Prop41ColorIndex
 90
       18
102
RTVSPost2010Prop41ColorRGB
 90
        0
102
RTVSPost2010PropOp41
 70
     1
102
RTVSPost2010Prop42
 90
       50
102
RTVSPost2010PropOp42
 70
     1
102
RTVSPost2010Prop43
 90
        3
102
RTVSPost2010PropOp43
 70
     1
102
RTVSPost2010Prop44ColorIndex
 90
        5
102
RTVSPost2010Prop44ColorRGB
 90
      255
102
RTVSPost2010PropOp44
 70
     1
102
RTVSPost2010Prop45
280
     0
102
RTVSPost2010PropOp45
 70
     1
102
RTVSPost2010Prop46
 90
       50
102
RTVSPost2010PropOp46
 70
     1
102
RTVSPost2010Prop47
 90
       50
102
RTVSPost2010PropOp47
 70
     1
102
RTVSPost2010Prop48
 90
       50
102
RTVSPost2010PropOp48
 70
     1
102
RTVSPost2010Prop49
280
     0
102
RTVSPost2010PropOp49
 70
     1
102
RTVSPost2010Prop50
 90
       50
102
RTVSPost2010PropOp50
 70
     1
102
RTVSPost2010Prop51ColorIndex
 90
      256
102
RTVSPost2010Prop51ColorRGB
 90
-16777216
102
RTVSPost2010PropOp51
 70
     0
102
RTVSPost2010Prop52
140
1.0
102
RTVSPost2010PropOp52
 70
     0
102
RTVSPost2010Prop53
 90
        2
102
RTVSPost2010PropOp53
 70
     1
102
RTVSPost2010Prop54
  1
strokes_ogs.tif
102
RTVSPost2010PropOp54
 70
     1
102
RTVSPost2010Prop55
280
     0
102
RTVSPost2010PropOp55
 70
     1
102
RTVSPost2010Prop56
140
1.0
102
RTVSPost2010PropOp56
 70
     1
102
RTVSPost2010Prop57
140
1.0
102
RTVSPost2010PropOp57
 70
     1
  0
XRECORD
  5
2A1
102
{ACAD_REACTORS
330
2A0
102
}
330
2A0
100
AcDbXrecord
280
     1
102
RTVSPropertyOp0
 70
     1
102
RTVSPropertyOp1
 70
     1
102
RTVSPropertyOp2
 70
     1
102
RTVSPropertyOp3
 70
     1
102
RTVSPropertyOp4
 70
     1
102
RTVSPropertyOp5
 70
     1
102
RTVSPropertyOp6
 70
     1
102
RTVSPropertyOp7
 70
     1
102
RTVSPropertyOp8
 70
     1
102
RTVSPropertyOp9
 70
     1
102
RTVSPropertyOp10
 70
     1
102
RTVSPropertyOp11
 70
     1
102
RTVSPropertyOp12
 70
     1
102
RTVSPropertyOp13
 70
     1
102
RTVSPropertyOp14
 70
     1
102
RTVSPropertyOp15
 70
     1
102
RTVSPropertyOp16
 70
     1
102
RTVSPropertyOp17
 70
     1
102
RTVSPropertyOp18
 70
     1
102
RTVSPropertyOp19
 70
     1
102
RTVSPropertyOp20
 70
     1
102
RTVSPropertyOp21
 70
     1
102
RTVSPropertyOp22
 70
     1
102
RTVSPropertyOp23
 70
     1
102
RTVSPropertyOp24
 70
     1
102
RTVSPropertyOp25
 70
     1
102
RTVSPropertyOp26
 70
     1
102
RTVSPropertyOp27
 70
     1
102
RTVSPropertyOp28
 70
     1
102
RTVSPropertyOp29
 70
     1
102
RTVSPropertyOp30
 70
     1
102
RTVSPropertyOp31
 70
     1
102
RTVSPropertyOp32
 70
     1
102
RTVSPropertyOp33
 70
     1
102
RTVSPropertyOp34
 70
     1
102
RTVSPropertyOp35
 70
     1
102
RTVSPropertyOp36
 70
     1
102
RTVSPropertyOp37
 70
     1
102
RTVSPropertyOp38
 70
     1
102
RTVSPropertyOp39
 70
     1
102
RTVSPropertyOp40
 70
     1
102
RTVSPropertyOp41
 70
     1
102
RTVSPropertyOp42
 70
     1
102
RTVSPropertyOp43
 70
     1
102
RTVSPropertyOp44
 70
     1
102
RTVSPropertyOp45
 70
     1
102
RTVSPropertyOp46
 70
     1
102
RTVSPropertyOp47
 70
     1
102
RTVSPropertyOp48
 70
     1
102
RTVSPropertyOp49
 70
     1
102
RTVSPropertyOp50
 70
     1
102
RTVSPropertyOp51
 70
     0
102
RTVSPropertyOp52
 70
     0
102
RTVSPropertyOp53
 70
     1
102
RTVSPropertyOp54
 70
     1
102
RTVSPropertyOp55
 70
     1
102
RTVSPropertyOp56
 70
     1
102
RTVSPropertyOp57
 70
     1
102
RTVSPost2010Prop28
280
     0
102
RTVSPost2010PropOp28
 70
     1
102
RTVSPost2010Prop29
280
     1
102
RTVSPost2010PropOp29
 70
     1
102
RTVSPost2010Prop30
280
     1
102
RTVSPost2010PropOp30
 70
     1
102
RTVSPost2010Prop31
280
     0
102
RTVSPost2010PropOp31
 70
     1
102
RTVSPost2010Prop32
280
     0
102
RTVSPost2010PropOp32
 70
     1
102
RTVSPost2010Prop33
280
     0
102
RTVSPost2010PropOp33
 70
     1
102
RTVSPost2010Prop34
280
     0
102
RTVSPost2010PropOp34
 70
     1
102
RTVSPost2010Prop35
280
     0
102
RTVSPost2010PropOp35
 70
     1
102
RTVSPost2010Prop36
280
     0
102
RTVSPost2010PropOp36
 70
     1
102
RTVSPost2010Prop37
 90
       50
102
RTVSPost2010PropOp37
 70
     1
102
RTVSPost2010Prop38
140
0.0
102
RTVSPost2010PropOp38
 70
     1
102
RTVSPost2010Prop39
140
1.0
102
RTVSPost2010PropOp39
 70
     1
102
RTVSPost2010Prop40
 90
        0
102
RTVSPost2010PropOp40
 70
     1
102
RTVSPost2010Prop41ColorIndex
 90
       18
102
RTVSPost2010Prop41ColorRGB
 90
        0
102
RTVSPost2010PropOp41
 70
     1
102
RTVSPost2010Prop42
 90
       50
102
RTVSPost2010PropOp42
 70
     1
102
RTVSPost2010Prop43
 90
        3
102
RTVSPost2010PropOp43
 70
     1
102
RTVSPost2010Prop44ColorIndex
 90
        5
102
RTVSPost2010Prop44ColorRGB
 90
      255
102
RTVSPost2010PropOp44
 70
     1
102
RTVSPost2010Prop45
280
     0
102
RTVSPost2010PropOp45
 70
     1
102
RTVSPost2010Prop46
 90
       50
102
RTVSPost2010PropOp46
 70
     1
102
RTVSPost2010Prop47
 90
       50
102
RTVSPost2010PropOp47
 70
     1
102
RTVSPost2010Prop48
 90
       50
102
RTVSPost2010PropOp48
 70
     1
102
RTVSPost2010Prop49
280
     0
102
RTVSPost2010PropOp49
 70
     1
102
RTVSPost2010Prop50
 90
       50
102
RTVSPost2010PropOp50
 70
     1
102
RTVSPost2010Prop51ColorIndex
 90
      256
102
RTVSPost2010Prop51ColorRGB
 90
-16777216
102
RTVSPost2010PropOp51
 70
     0
102
RTVSPost2010Prop52
140
1.0
102
RTVSPost2010PropOp52
 70
     0
102
RTVSPost2010Prop53
 90
        2
102
RTVSPost2010PropOp53
 70
     1
102
RTVSPost2010Prop54
  1
strokes_ogs.tif
102
RTVSPost2010PropOp54
 70
     1
102
RTVSPost2010Prop55
280
     0
102
RTVSPost2010PropOp55
 70
     1
102
RTVSPost2010Prop56
140
1.0
102
RTVSPost2010PropOp56
 70
     1
102
RTVSPost2010Prop57
140
1.0
102
RTVSPost2010PropOp57
 70
     1
  0
XRECORD
  5
29F
102
{ACAD_REACTORS
330
29E
102
}
330
29E
100
AcDbXrecord
280
     1
102
RTVSPropertyOp0
 70
     1
102
RTVSPropertyOp1
 70
     1
102
RTVSPropertyOp2
 70
     1
102
RTVSPropertyOp3
 70
     1
102
RTVSPropertyOp4
 70
     1
102
RTVSPropertyOp5
 70
     1
102
RTVSPropertyOp6
 70
     1
102
RTVSPropertyOp7
 70
     1
102
RTVSPropertyOp8
 70
     1
102
RTVSPropertyOp9
 70
     1
102
RTVSPropertyOp10
 70
     1
102
RTVSPropertyOp11
 70
     1
102
RTVSPropertyOp12
 70
     1
102
RTVSPropertyOp13
 70
     1
102
RTVSPropertyOp14
 70
     1
102
RTVSPropertyOp15
 70
     1
102
RTVSPropertyOp16
 70
     1
102
RTVSPropertyOp17
 70
     1
102
RTVSPropertyOp18
 70
     1
102
RTVSPropertyOp19
 70
     1
102
RTVSPropertyOp20
 70
     1
102
RTVSPropertyOp21
 70
     1
102
RTVSPropertyOp22
 70
     1
102
RTVSPropertyOp23
 70
     1
102
RTVSPropertyOp24
 70
     1
102
RTVSPropertyOp25
 70
     1
102
RTVSPropertyOp26
 70
     1
102
RTVSPropertyOp27
 70
     1
102
RTVSPropertyOp28
 70
     1
102
RTVSPropertyOp29
 70
     1
102
RTVSPropertyOp30
 70
     1
102
RTVSPropertyOp31
 70
     1
102
RTVSPropertyOp32
 70
     1
102
RTVSPropertyOp33
 70
     1
102
RTVSPropertyOp34
 70
     1
102
RTVSPropertyOp35
 70
     1
102
RTVSPropertyOp36
 70
     1
102
RTVSPropertyOp37
 70
     1
102
RTVSPropertyOp38
 70
     1
102
RTVSPropertyOp39
 70
     1
102
RTVSPropertyOp40
 70
     1
102
RTVSPropertyOp41
 70
     1
102
RTVSPropertyOp42
 70
     1
102
RTVSPropertyOp43
 70
     1
102
RTVSPropertyOp44
 70
     1
102
RTVSPropertyOp45
 70
     1
102
RTVSPropertyOp46
 70
     1
102
RTVSPropertyOp47
 70
     1
102
RTVSPropertyOp48
 70
     1
102
RTVSPropertyOp49
 70
     1
102
RTVSPropertyOp50
 70
     1
102
RTVSPropertyOp51
 70
     0
102
RTVSPropertyOp52
 70
     0
102
RTVSPropertyOp53
 70
     1
102
RTVSPropertyOp54
 70
     1
102
RTVSPropertyOp55
 70
     1
102
RTVSPropertyOp56
 70
     1
102
RTVSPropertyOp57
 70
     1
102
RTVSPost2010Prop28
280
     0
102
RTVSPost2010PropOp28
 70
     1
102
RTVSPost2010Prop29
280
     1
102
RTVSPost2010PropOp29
 70
     1
102
RTVSPost2010Prop30
280
     1
102
RTVSPost2010PropOp30
 70
     1
102
RTVSPost2010Prop31
280
     0
102
RTVSPost2010PropOp31
 70
     1
102
RTVSPost2010Prop32
280
     0
102
RTVSPost2010PropOp32
 70
     1
102
RTVSPost2010Prop33
280
     0
102
RTVSPost2010PropOp33
 70
     1
102
RTVSPost2010Prop34
280
     0
102
RTVSPost2010PropOp34
 70
     1
102
RTVSPost2010Prop35
280
     0
102
RTVSPost2010PropOp35
 70
     1
102
RTVSPost2010Prop36
280
     0
102
RTVSPost2010PropOp36
 70
     1
102
RTVSPost2010Prop37
 90
       50
102
RTVSPost2010PropOp37
 70
     1
102
RTVSPost2010Prop38
140
0.0
102
RTVSPost2010PropOp38
 70
     1
102
RTVSPost2010Prop39
140
1.0
102
RTVSPost2010PropOp39
 70
     1
102
RTVSPost2010Prop40
 90
        0
102
RTVSPost2010PropOp40
 70
     1
102
RTVSPost2010Prop41ColorIndex
 90
       18
102
RTVSPost2010Prop41ColorRGB
 90
        0
102
RTVSPost2010PropOp41
 70
     1
102
RTVSPost2010Prop42
 90
       50
102
RTVSPost2010PropOp42
 70
     1
102
RTVSPost2010Prop43
 90
        3
102
RTVSPost2010PropOp43
 70
     1
102
RTVSPost2010Prop44ColorIndex
 90
        5
102
RTVSPost2010Prop44ColorRGB
 90
      255
102
RTVSPost2010PropOp44
 70
     1
102
RTVSPost2010Prop45
280
     0
102
RTVSPost2010PropOp45
 70
     1
102
RTVSPost2010Prop46
 90
       50
102
RTVSPost2010PropOp46
 70
     1
102
RTVSPost2010Prop47
 90
       50
102
RTVSPost2010PropOp47
 70
     1
102
RTVSPost2010Prop48
 90
       50
102
RTVSPost2010PropOp48
 70
     1
102
RTVSPost2010Prop49
280
     0
102
RTVSPost2010PropOp49
 70
     1
102
RTVSPost2010Prop50
 90
       50
102
RTVSPost2010PropOp50
 70
     1
102
RTVSPost2010Prop51ColorIndex
 90
      256
102
RTVSPost2010Prop51ColorRGB
 90
-16777216
102
RTVSPost2010PropOp51
 70
     0
102
RTVSPost2010Prop52
140
1.0
102
RTVSPost2010PropOp52
 70
     0
102
RTVSPost2010Prop53
 90
        2
102
RTVSPost2010PropOp53
 70
     1
102
RTVSPost2010Prop54
  1
strokes_ogs.tif
102
RTVSPost2010PropOp54
 70
     1
102
RTVSPost2010Prop55
280
     0
102
RTVSPost2010PropOp55
 70
     1
102
RTVSPost2010Prop56
140
1.0
102
RTVSPost2010PropOp56
 70
     1
102
RTVSPost2010Prop57
140
1.0
102
RTVSPost2010PropOp57
 70
     1
  0
XRECORD
  5
299
102
{ACAD_REACTORS
330
298
102
}
330
298
100
AcDbXrecord
280
     1
102
RTVSPropertyOp0
 70
     1
102
RTVSPropertyOp1
 70
     1
102
RTVSPropertyOp2
 70
     1
102
RTVSPropertyOp3
 70
     1
102
RTVSPropertyOp4
 70
     1
102
RTVSPropertyOp5
 70
     1
102
RTVSPropertyOp6
 70
     1
102
RTVSPropertyOp7
 70
     1
102
RTVSPropertyOp8
 70
     1
102
RTVSPropertyOp9
 70
     1
102
RTVSPropertyOp10
 70
     1
102
RTVSPropertyOp11
 70
     1
102
RTVSPropertyOp12
 70
     1
102
RTVSPropertyOp13
 70
     1
102
RTVSPropertyOp14
 70
     1
102
RTVSPropertyOp15
 70
     1
102
RTVSPropertyOp16
 70
     1
102
RTVSPropertyOp17
 70
     1
102
RTVSPropertyOp18
 70
     1
102
RTVSPropertyOp19
 70
     1
102
RTVSPropertyOp20
 70
     1
102
RTVSPropertyOp21
 70
     1
102
RTVSPropertyOp22
 70
     1
102
RTVSPropertyOp23
 70
     1
102
RTVSPropertyOp24
 70
     1
102
RTVSPropertyOp25
 70
     1
102
RTVSPropertyOp26
 70
     1
102
RTVSPropertyOp27
 70
     1
102
RTVSPropertyOp28
 70
     1
102
RTVSPropertyOp29
 70
     1
102
RTVSPropertyOp30
 70
     1
102
RTVSPropertyOp31
 70
     1
102
RTVSPropertyOp32
 70
     1
102
RTVSPropertyOp33
 70
     1
102
RTVSPropertyOp34
 70
     1
102
RTVSPropertyOp35
 70
     1
102
RTVSPropertyOp36
 70
     1
102
RTVSPropertyOp37
 70
     1
102
RTVSPropertyOp38
 70
     1
102
RTVSPropertyOp39
 70
     1
102
RTVSPropertyOp40
 70
     1
102
RTVSPropertyOp41
 70
     1
102
RTVSPropertyOp42
 70
     1
102
RTVSPropertyOp43
 70
     1
102
RTVSPropertyOp44
 70
     1
102
RTVSPropertyOp45
 70
     1
102
RTVSPropertyOp46
 70
     1
102
RTVSPropertyOp47
 70
     1
102
RTVSPropertyOp48
 70
     1
102
RTVSPropertyOp49
 70
     1
102
RTVSPropertyOp50
 70
     1
102
RTVSPropertyOp51
 70
     0
102
RTVSPropertyOp52
 70
     0
102
RTVSPropertyOp53
 70
     1
102
RTVSPropertyOp54
 70
     1
102
RTVSPropertyOp55
 70
     1
102
RTVSPropertyOp56
 70
     1
102
RTVSPropertyOp57
 70
     1
102
RTVSPost2010Prop28
280
     0
102
RTVSPost2010PropOp28
 70
     1
102
RTVSPost2010Prop29
280
     1
102
RTVSPost2010PropOp29
 70
     1
102
RTVSPost2010Prop30
280
     1
102
RTVSPost2010PropOp30
 70
     1
102
RTVSPost2010Prop31
280
     0
102
RTVSPost2010PropOp31
 70
     1
102
RTVSPost2010Prop32
280
     0
102
RTVSPost2010PropOp32
 70
     1
102
RTVSPost2010Prop33
280
     0
102
RTVSPost2010PropOp33
 70
     1
102
RTVSPost2010Prop34
280
     0
102
RTVSPost2010PropOp34
 70
     1
102
RTVSPost2010Prop35
280
     0
102
RTVSPost2010PropOp35
 70
     1
102
RTVSPost2010Prop36
280
     0
102
RTVSPost2010PropOp36
 70
     1
102
RTVSPost2010Prop37
 90
       50
102
RTVSPost2010PropOp37
 70
     1
102
RTVSPost2010Prop38
140
0.0
102
RTVSPost2010PropOp38
 70
     1
102
RTVSPost2010Prop39
140
1.0
102
RTVSPost2010PropOp39
 70
     1
102
RTVSPost2010Prop40
 90
        0
102
RTVSPost2010PropOp40
 70
     1
102
RTVSPost2010Prop41ColorIndex
 90
       18
102
RTVSPost2010Prop41ColorRGB
 90
        0
102
RTVSPost2010PropOp41
 70
     1
102
RTVSPost2010Prop42
 90
       50
102
RTVSPost2010PropOp42
 70
     1
102
RTVSPost2010Prop43
 90
        3
102
RTVSPost2010PropOp43
 70
     1
102
RTVSPost2010Prop44ColorIndex
 90
        5
102
RTVSPost2010Prop44ColorRGB
 90
      255
102
RTVSPost2010PropOp44
 70
     1
102
RTVSPost2010Prop45
280
     0
102
RTVSPost2010PropOp45
 70
     1
102
RTVSPost2010Prop46
 90
       50
102
RTVSPost2010PropOp46
 70
     1
102
RTVSPost2010Prop47
 90
       50
102
RTVSPost2010PropOp47
 70
     1
102
RTVSPost2010Prop48
 90
       50
102
RTVSPost2010PropOp48
 70
     1
102
RTVSPost2010Prop49
280
     0
102
RTVSPost2010PropOp49
 70
     1
102
RTVSPost2010Prop50
 90
       50
102
RTVSPost2010PropOp50
 70
     1
102
RTVSPost2010Prop51ColorIndex
 90
      256
102
RTVSPost2010Prop51ColorRGB
 90
-16777216
102
RTVSPost2010PropOp51
 70
     0
102
RTVSPost2010Prop52
140
1.0
102
RTVSPost2010PropOp52
 70
     0
102
RTVSPost2010Prop53
 90
        2
102
RTVSPost2010PropOp53
 70
     1
102
RTVSPost2010Prop54
  1
strokes_ogs.tif
102
RTVSPost2010PropOp54
 70
     1
102
RTVSPost2010Prop55
280
     0
102
RTVSPost2010PropOp55
 70
     1
102
RTVSPost2010Prop56
140
1.0
102
RTVSPost2010PropOp56
 70
     1
102
RTVSPost2010Prop57
140
1.0
102
RTVSPost2010PropOp57
 70
     1
  0
XRECORD
  5
29B
102
{ACAD_REACTORS
330
29A
102
}
330
29A
100
AcDbXrecord
280
     1
102
RTVSPropertyOp0
 70
     1
102
RTVSPropertyOp1
 70
     1
102
RTVSPropertyOp2
 70
     1
102
RTVSPropertyOp3
 70
     1
102
RTVSPropertyOp4
 70
     1
102
RTVSPropertyOp5
 70
     1
102
RTVSPropertyOp6
 70
     1
102
RTVSPropertyOp7
 70
     1
102
RTVSPropertyOp8
 70
     1
102
RTVSPropertyOp9
 70
     1
102
RTVSPropertyOp10
 70
     1
102
RTVSPropertyOp11
 70
     1
102
RTVSPropertyOp12
 70
     1
102
RTVSPropertyOp13
 70
     1
102
RTVSPropertyOp14
 70
     1
102
RTVSPropertyOp15
 70
     1
102
RTVSPropertyOp16
 70
     1
102
RTVSPropertyOp17
 70
     1
102
RTVSPropertyOp18
 70
     1
102
RTVSPropertyOp19
 70
     1
102
RTVSPropertyOp20
 70
     1
102
RTVSPropertyOp21
 70
     1
102
RTVSPropertyOp22
 70
     1
102
RTVSPropertyOp23
 70
     1
102
RTVSPropertyOp24
 70
     1
102
RTVSPropertyOp25
 70
     1
102
RTVSPropertyOp26
 70
     1
102
RTVSPropertyOp27
 70
     1
102
RTVSPropertyOp28
 70
     1
102
RTVSPropertyOp29
 70
     1
102
RTVSPropertyOp30
 70
     1
102
RTVSPropertyOp31
 70
     1
102
RTVSPropertyOp32
 70
     1
102
RTVSPropertyOp33
 70
     1
102
RTVSPropertyOp34
 70
     1
102
RTVSPropertyOp35
 70
     1
102
RTVSPropertyOp36
 70
     1
102
RTVSPropertyOp37
 70
     1
102
RTVSPropertyOp38
 70
     1
102
RTVSPropertyOp39
 70
     1
102
RTVSPropertyOp40
 70
     1
102
RTVSPropertyOp41
 70
     1
102
RTVSPropertyOp42
 70
     1
102
RTVSPropertyOp43
 70
     1
102
RTVSPropertyOp44
 70
     1
102
RTVSPropertyOp45
 70
     1
102
RTVSPropertyOp46
 70
     1
102
RTVSPropertyOp47
 70
     1
102
RTVSPropertyOp48
 70
     1
102
RTVSPropertyOp49
 70
     1
102
RTVSPropertyOp50
 70
     1
102
RTVSPropertyOp51
 70
     0
102
RTVSPropertyOp52
 70
     0
102
RTVSPropertyOp53
 70
     1
102
RTVSPropertyOp54
 70
     1
102
RTVSPropertyOp55
 70
     1
102
RTVSPropertyOp56
 70
     1
102
RTVSPropertyOp57
 70
     1
102
RTVSPost2010Prop28
280
     0
102
RTVSPost2010PropOp28
 70
     1
102
RTVSPost2010Prop29
280
     1
102
RTVSPost2010PropOp29
 70
     1
102
RTVSPost2010Prop30
280
     1
102
RTVSPost2010PropOp30
 70
     1
102
RTVSPost2010Prop31
280
     0
102
RTVSPost2010PropOp31
 70
     1
102
RTVSPost2010Prop32
280
     0
102
RTVSPost2010PropOp32
 70
     1
102
RTVSPost2010Prop33
280
     0
102
RTVSPost2010PropOp33
 70
     1
102
RTVSPost2010Prop34
280
     0
102
RTVSPost2010PropOp34
 70
     1
102
RTVSPost2010Prop35
280
     0
102
RTVSPost2010PropOp35
 70
     1
102
RTVSPost2010Prop36
280
     0
102
RTVSPost2010PropOp36
 70
     1
102
RTVSPost2010Prop37
 90
       50
102
RTVSPost2010PropOp37
 70
     1
102
RTVSPost2010Prop38
140
0.0
102
RTVSPost2010PropOp38
 70
     1
102
RTVSPost2010Prop39
140
1.0
102
RTVSPost2010PropOp39
 70
     1
102
RTVSPost2010Prop40
 90
        0
102
RTVSPost2010PropOp40
 70
     1
102
RTVSPost2010Prop41ColorIndex
 90
       18
102
RTVSPost2010Prop41ColorRGB
 90
        0
102
RTVSPost2010PropOp41
 70
     1
102
RTVSPost2010Prop42
 90
       50
102
RTVSPost2010PropOp42
 70
     1
102
RTVSPost2010Prop43
 90
        3
102
RTVSPost2010PropOp43
 70
     1
102
RTVSPost2010Prop44ColorIndex
 90
        5
102
RTVSPost2010Prop44ColorRGB
 90
      255
102
RTVSPost2010PropOp44
 70
     1
102
RTVSPost2010Prop45
280
     0
102
RTVSPost2010PropOp45
 70
     1
102
RTVSPost2010Prop46
 90
       50
102
RTVSPost2010PropOp46
 70
     1
102
RTVSPost2010Prop47
 90
       50
102
RTVSPost2010PropOp47
 70
     1
102
RTVSPost2010Prop48
 90
       50
102
RTVSPost2010PropOp48
 70
     1
102
RTVSPost2010Prop49
280
     0
102
RTVSPost2010PropOp49
 70
     1
102
RTVSPost2010Prop50
 90
       50
102
RTVSPost2010PropOp50
 70
     1
102
RTVSPost2010Prop51ColorIndex
 90
      256
102
RTVSPost2010Prop51ColorRGB
 90
-16777216
102
RTVSPost2010PropOp51
 70
     0
102
RTVSPost2010Prop52
140
1.0
102
RTVSPost2010PropOp52
 70
     0
102
RTVSPost2010Prop53
 90
        2
102
RTVSPost2010PropOp53
 70
     1
102
RTVSPost2010Prop54
  1
strokes_ogs.tif
102
RTVSPost2010PropOp54
 70
     1
102
RTVSPost2010Prop55
280
     0
102
RTVSPost2010PropOp55
 70
     1
102
RTVSPost2010Prop56
140
1.0
102
RTVSPost2010PropOp56
 70
     1
102
RTVSPost2010Prop57
140
1.0
102
RTVSPost2010PropOp57
 70
     1
  0
XRECORD
  5
28B
102
{ACAD_REACTORS
330
28A
102
}
330
28A
100
AcDbXrecord
280
     1
102
RTVSPropertyOp0
 70
     1
102
RTVSPropertyOp1
 70
     1
102
RTVSPropertyOp2
 70
     1
102
RTVSPropertyOp3
 70
     1
102
RTVSPropertyOp4
 70
     1
102
RTVSPropertyOp5
 70
     1
102
RTVSPropertyOp6
 70
     1
102
RTVSPropertyOp7
 70
     1
102
RTVSPropertyOp8
 70
     1
102
RTVSPropertyOp9
 70
     1
102
RTVSPropertyOp10
 70
     1
102
RTVSPropertyOp11
 70
     1
102
RTVSPropertyOp12
 70
     1
102
RTVSPropertyOp13
 70
     1
102
RTVSPropertyOp14
 70
     1
102
RTVSPropertyOp15
 70
     1
102
RTVSPropertyOp16
 70
     1
102
RTVSPropertyOp17
 70
     1
102
RTVSPropertyOp18
 70
     1
102
RTVSPropertyOp19
 70
     1
102
RTVSPropertyOp20
 70
     1
102
RTVSPropertyOp21
 70
     1
102
RTVSPropertyOp22
 70
     1
102
RTVSPropertyOp23
 70
     1
102
RTVSPropertyOp24
 70
     1
102
RTVSPropertyOp25
 70
     1
102
RTVSPropertyOp26
 70
     1
102
RTVSPropertyOp27
 70
     1
102
RTVSPropertyOp28
 70
     1
102
RTVSPropertyOp29
 70
     1
102
RTVSPropertyOp30
 70
     1
102
RTVSPropertyOp31
 70
     1
102
RTVSPropertyOp32
 70
     1
102
RTVSPropertyOp33
 70
     1
102
RTVSPropertyOp34
 70
     1
102
RTVSPropertyOp35
 70
     1
102
RTVSPropertyOp36
 70
     1
102
RTVSPropertyOp37
 70
     1
102
RTVSPropertyOp38
 70
     1
102
RTVSPropertyOp39
 70
     1
102
RTVSPropertyOp40
 70
     1
102
RTVSPropertyOp41
 70
     1
102
RTVSPropertyOp42
 70
     1
102
RTVSPropertyOp43
 70
     1
102
RTVSPropertyOp44
 70
     1
102
RTVSPropertyOp45
 70
     1
102
RTVSPropertyOp46
 70
     1
102
RTVSPropertyOp47
 70
     1
102
RTVSPropertyOp48
 70
     1
102
RTVSPropertyOp49
 70
     1
102
RTVSPropertyOp50
 70
     1
102
RTVSPropertyOp51
 70
     0
102
RTVSPropertyOp52
 70
     0
102
RTVSPropertyOp53
 70
     1
102
RTVSPropertyOp54
 70
     1
102
RTVSPropertyOp55
 70
     1
102
RTVSPropertyOp56
 70
     1
102
RTVSPropertyOp57
 70
     1
102
RTVSPost2010Prop28
280
     0
102
RTVSPost2010PropOp28
 70
     1
102
RTVSPost2010Prop29
280
     1
102
RTVSPost2010PropOp29
 70
     1
102
RTVSPost2010Prop30
280
     1
102
RTVSPost2010PropOp30
 70
     1
102
RTVSPost2010Prop31
280
     0
102
RTVSPost2010PropOp31
 70
     1
102
RTVSPost2010Prop32
280
     0
102
RTVSPost2010PropOp32
 70
     1
102
RTVSPost2010Prop33
280
     0
102
RTVSPost2010PropOp33
 70
     1
102
RTVSPost2010Prop34
280
     0
102
RTVSPost2010PropOp34
 70
     1
102
RTVSPost2010Prop35
280
     0
102
RTVSPost2010PropOp35
 70
     1
102
RTVSPost2010Prop36
280
     0
102
RTVSPost2010PropOp36
 70
     1
102
RTVSPost2010Prop37
 90
       50
102
RTVSPost2010PropOp37
 70
     1
102
RTVSPost2010Prop38
140
0.0
102
RTVSPost2010PropOp38
 70
     1
102
RTVSPost2010Prop39
140
1.0
102
RTVSPost2010PropOp39
 70
     1
102
RTVSPost2010Prop40
 90
        0
102
RTVSPost2010PropOp40
 70
     1
102
RTVSPost2010Prop41ColorIndex
 90
       18
102
RTVSPost2010Prop41ColorRGB
 90
        0
102
RTVSPost2010PropOp41
 70
     1
102
RTVSPost2010Prop42
 90
       50
102
RTVSPost2010PropOp42
 70
     1
102
RTVSPost2010Prop43
 90
        3
102
RTVSPost2010PropOp43
 70
     1
102
RTVSPost2010Prop44ColorIndex
 90
        5
102
RTVSPost2010Prop44ColorRGB
 90
      255
102
RTVSPost2010PropOp44
 70
     1
102
RTVSPost2010Prop45
280
     0
102
RTVSPost2010PropOp45
 70
     1
102
RTVSPost2010Prop46
 90
       50
102
RTVSPost2010PropOp46
 70
     1
102
RTVSPost2010Prop47
 90
       50
102
RTVSPost2010PropOp47
 70
     1
102
RTVSPost2010Prop48
 90
       50
102
RTVSPost2010PropOp48
 70
     1
102
RTVSPost2010Prop49
280
     0
102
RTVSPost2010PropOp49
 70
     1
102
RTVSPost2010Prop50
 90
       50
102
RTVSPost2010PropOp50
 70
     1
102
RTVSPost2010Prop51ColorIndex
 90
      256
102
RTVSPost2010Prop51ColorRGB
 90
-16777216
102
RTVSPost2010PropOp51
 70
     0
102
RTVSPost2010Prop52
140
1.0
102
RTVSPost2010PropOp52
 70
     0
102
RTVSPost2010Prop53
 90
        2
102
RTVSPost2010PropOp53
 70
     1
102
RTVSPost2010Prop54
  1
strokes_ogs.tif
102
RTVSPost2010PropOp54
 70
     1
102
RTVSPost2010Prop55
280
     0
102
RTVSPost2010PropOp55
 70
     1
102
RTVSPost2010Prop56
140
1.0
102
RTVSPost2010PropOp56
 70
     1
102
RTVSPost2010Prop57
140
1.0
102
RTVSPost2010PropOp57
 70
     1
  0
XRECORD
  5
27D
102
{ACAD_REACTORS
330
27C
102
}
330
27C
100
AcDbXrecord
280
     1
102
RTVSPropertyOp0
 70
     1
102
RTVSPropertyOp1
 70
     1
102
RTVSPropertyOp2
 70
     1
102
RTVSPropertyOp3
 70
     1
102
RTVSPropertyOp4
 70
     1
102
RTVSPropertyOp5
 70
     1
102
RTVSPropertyOp6
 70
     1
102
RTVSPropertyOp7
 70
     1
102
RTVSPropertyOp8
 70
     1
102
RTVSPropertyOp9
 70
     1
102
RTVSPropertyOp10
 70
     1
102
RTVSPropertyOp11
 70
     1
102
RTVSPropertyOp12
 70
     1
102
RTVSPropertyOp13
 70
     1
102
RTVSPropertyOp14
 70
     1
102
RTVSPropertyOp15
 70
     1
102
RTVSPropertyOp16
 70
     1
102
RTVSPropertyOp17
 70
     1
102
RTVSPropertyOp18
 70
     1
102
RTVSPropertyOp19
 70
     1
102
RTVSPropertyOp20
 70
     1
102
RTVSPropertyOp21
 70
     1
102
RTVSPropertyOp22
 70
     1
102
RTVSPropertyOp23
 70
     1
102
RTVSPropertyOp24
 70
     1
102
RTVSPropertyOp25
 70
     1
102
RTVSPropertyOp26
 70
     1
102
RTVSPropertyOp27
 70
     1
102
RTVSPropertyOp28
 70
     1
102
RTVSPropertyOp29
 70
     1
102
RTVSPropertyOp30
 70
     1
102
RTVSPropertyOp31
 70
     1
102
RTVSPropertyOp32
 70
     1
102
RTVSPropertyOp33
 70
     1
102
RTVSPropertyOp34
 70
     1
102
RTVSPropertyOp35
 70
     1
102
RTVSPropertyOp36
 70
     1
102
RTVSPropertyOp37
 70
     1
102
RTVSPropertyOp38
 70
     1
102
RTVSPropertyOp39
 70
     1
102
RTVSPropertyOp40
 70
     1
102
RTVSPropertyOp41
 70
     1
102
RTVSPropertyOp42
 70
     1
102
RTVSPropertyOp43
 70
     1
102
RTVSPropertyOp44
 70
     1
102
RTVSPropertyOp45
 70
     1
102
RTVSPropertyOp46
 70
     1
102
RTVSPropertyOp47
 70
     1
102
RTVSPropertyOp48
 70
     1
102
RTVSPropertyOp49
 70
     1
102
RTVSPropertyOp50
 70
     1
102
RTVSPropertyOp51
 70
     0
102
RTVSPropertyOp52
 70
     0
102
RTVSPropertyOp53
 70
     1
102
RTVSPropertyOp54
 70
     1
102
RTVSPropertyOp55
 70
     1
102
RTVSPropertyOp56
 70
     1
102
RTVSPropertyOp57
 70
     1
102
RTVSPost2010Prop28
280
     0
102
RTVSPost2010PropOp28
 70
     1
102
RTVSPost2010Prop29
280
     1
102
RTVSPost2010PropOp29
 70
     1
102
RTVSPost2010Prop30
280
     1
102
RTVSPost2010PropOp30
 70
     1
102
RTVSPost2010Prop31
280
     0
102
RTVSPost2010PropOp31
 70
     1
102
RTVSPost2010Prop32
280
     0
102
RTVSPost2010PropOp32
 70
     1
102
RTVSPost2010Prop33
280
     0
102
RTVSPost2010PropOp33
 70
     1
102
RTVSPost2010Prop34
280
     0
102
RTVSPost2010PropOp34
 70
     1
102
RTVSPost2010Prop35
280
     0
102
RTVSPost2010PropOp35
 70
     1
102
RTVSPost2010Prop36
280
     0
102
RTVSPost2010PropOp36
 70
     1
102
RTVSPost2010Prop37
 90
       50
102
RTVSPost2010PropOp37
 70
     1
102
RTVSPost2010Prop38
140
0.0
102
RTVSPost2010PropOp38
 70
     1
102
RTVSPost2010Prop39
140
1.0
102
RTVSPost2010PropOp39
 70
     1
102
RTVSPost2010Prop40
 90
        0
102
RTVSPost2010PropOp40
 70
     1
102
RTVSPost2010Prop41ColorIndex
 90
       18
102
RTVSPost2010Prop41ColorRGB
 90
        0
102
RTVSPost2010PropOp41
 70
     1
102
RTVSPost2010Prop42
 90
       50
102
RTVSPost2010PropOp42
 70
     1
102
RTVSPost2010Prop43
 90
        3
102
RTVSPost2010PropOp43
 70
     1
102
RTVSPost2010Prop44ColorIndex
 90
        5
102
RTVSPost2010Prop44ColorRGB
 90
      255
102
RTVSPost2010PropOp44
 70
     1
102
RTVSPost2010Prop45
280
     0
102
RTVSPost2010PropOp45
 70
     1
102
RTVSPost2010Prop46
 90
       50
102
RTVSPost2010PropOp46
 70
     1
102
RTVSPost2010Prop47
 90
       50
102
RTVSPost2010PropOp47
 70
     1
102
RTVSPost2010Prop48
 90
       50
102
RTVSPost2010PropOp48
 70
     1
102
RTVSPost2010Prop49
280
     0
102
RTVSPost2010PropOp49
 70
     1
102
RTVSPost2010Prop50
 90
       50
102
RTVSPost2010PropOp50
 70
     1
102
RTVSPost2010Prop51ColorIndex
 90
      256
102
RTVSPost2010Prop51ColorRGB
 90
-16777216
102
RTVSPost2010PropOp51
 70
     0
102
RTVSPost2010Prop52
140
1.0
102
RTVSPost2010PropOp52
 70
     0
102
RTVSPost2010Prop53
 90
        2
102
RTVSPost2010PropOp53
 70
     1
102
RTVSPost2010Prop54
  1
strokes_ogs.tif
102
RTVSPost2010PropOp54
 70
     1
102
RTVSPost2010Prop55
280
     0
102
RTVSPost2010PropOp55
 70
     1
102
RTVSPost2010Prop56
140
1.0
102
RTVSPost2010PropOp56
 70
     1
102
RTVSPost2010Prop57
140
1.0
102
RTVSPost2010PropOp57
 70
     1
  0
XRECORD
  5
29D
102
{ACAD_REACTORS
330
29C
102
}
330
29C
100
AcDbXrecord
280
     1
102
RTVSPropertyOp0
 70
     1
102
RTVSPropertyOp1
 70
     1
102
RTVSPropertyOp2
 70
     1
102
RTVSPropertyOp3
 70
     1
102
RTVSPropertyOp4
 70
     1
102
RTVSPropertyOp5
 70
     1
102
RTVSPropertyOp6
 70
     1
102
RTVSPropertyOp7
 70
     1
102
RTVSPropertyOp8
 70
     1
102
RTVSPropertyOp9
 70
     1
102
RTVSPropertyOp10
 70
     1
102
RTVSPropertyOp11
 70
     1
102
RTVSPropertyOp12
 70
     1
102
RTVSPropertyOp13
 70
     1
102
RTVSPropertyOp14
 70
     1
102
RTVSPropertyOp15
 70
     1
102
RTVSPropertyOp16
 70
     1
102
RTVSPropertyOp17
 70
     1
102
RTVSPropertyOp18
 70
     1
102
RTVSPropertyOp19
 70
     1
102
RTVSPropertyOp20
 70
     1
102
RTVSPropertyOp21
 70
     1
102
RTVSPropertyOp22
 70
     1
102
RTVSPropertyOp23
 70
     1
102
RTVSPropertyOp24
 70
     1
102
RTVSPropertyOp25
 70
     1
102
RTVSPropertyOp26
 70
     1
102
RTVSPropertyOp27
 70
     1
102
RTVSPropertyOp28
 70
     1
102
RTVSPropertyOp29
 70
     1
102
RTVSPropertyOp30
 70
     1
102
RTVSPropertyOp31
 70
     1
102
RTVSPropertyOp32
 70
     1
102
RTVSPropertyOp33
 70
     1
102
RTVSPropertyOp34
 70
     1
102
RTVSPropertyOp35
 70
     1
102
RTVSPropertyOp36
 70
     1
102
RTVSPropertyOp37
 70
     1
102
RTVSPropertyOp38
 70
     1
102
RTVSPropertyOp39
 70
     1
102
RTVSPropertyOp40
 70
     1
102
RTVSPropertyOp41
 70
     1
102
RTVSPropertyOp42
 70
     1
102
RTVSPropertyOp43
 70
     1
102
RTVSPropertyOp44
 70
     1
102
RTVSPropertyOp45
 70
     1
102
RTVSPropertyOp46
 70
     1
102
RTVSPropertyOp47
 70
     1
102
RTVSPropertyOp48
 70
     1
102
RTVSPropertyOp49
 70
     1
102
RTVSPropertyOp50
 70
     1
102
RTVSPropertyOp51
 70
     0
102
RTVSPropertyOp52
 70
     0
102
RTVSPropertyOp53
 70
     1
102
RTVSPropertyOp54
 70
     1
102
RTVSPropertyOp55
 70
     1
102
RTVSPropertyOp56
 70
     1
102
RTVSPropertyOp57
 70
     1
102
RTVSPost2010Prop28
280
     0
102
RTVSPost2010PropOp28
 70
     1
102
RTVSPost2010Prop29
280
     1
102
RTVSPost2010PropOp29
 70
     1
102
RTVSPost2010Prop30
280
     1
102
RTVSPost2010PropOp30
 70
     1
102
RTVSPost2010Prop31
280
     0
102
RTVSPost2010PropOp31
 70
     1
102
RTVSPost2010Prop32
280
     0
102
RTVSPost2010PropOp32
 70
     1
102
RTVSPost2010Prop33
280
     0
102
RTVSPost2010PropOp33
 70
     1
102
RTVSPost2010Prop34
280
     0
102
RTVSPost2010PropOp34
 70
     1
102
RTVSPost2010Prop35
280
     0
102
RTVSPost2010PropOp35
 70
     1
102
RTVSPost2010Prop36
280
     0
102
RTVSPost2010PropOp36
 70
     1
102
RTVSPost2010Prop37
 90
       50
102
RTVSPost2010PropOp37
 70
     1
102
RTVSPost2010Prop38
140
0.0
102
RTVSPost2010PropOp38
 70
     1
102
RTVSPost2010Prop39
140
1.0
102
RTVSPost2010PropOp39
 70
     1
102
RTVSPost2010Prop40
 90
        0
102
RTVSPost2010PropOp40
 70
     1
102
RTVSPost2010Prop41ColorIndex
 90
       18
102
RTVSPost2010Prop41ColorRGB
 90
        0
102
RTVSPost2010PropOp41
 70
     1
102
RTVSPost2010Prop42
 90
       50
102
RTVSPost2010PropOp42
 70
     1
102
RTVSPost2010Prop43
 90
        3
102
RTVSPost2010PropOp43
 70
     1
102
RTVSPost2010Prop44ColorIndex
 90
        5
102
RTVSPost2010Prop44ColorRGB
 90
      255
102
RTVSPost2010PropOp44
 70
     1
102
RTVSPost2010Prop45
280
     0
102
RTVSPost2010PropOp45
 70
     1
102
RTVSPost2010Prop46
 90
       50
102
RTVSPost2010PropOp46
 70
     1
102
RTVSPost2010Prop47
 90
       50
102
RTVSPost2010PropOp47
 70
     1
102
RTVSPost2010Prop48
 90
       50
102
RTVSPost2010PropOp48
 70
     1
102
RTVSPost2010Prop49
280
     0
102
RTVSPost2010PropOp49
 70
     1
102
RTVSPost2010Prop50
 90
       50
102
RTVSPost2010PropOp50
 70
     1
102
RTVSPost2010Prop51ColorIndex
 90
      256
102
RTVSPost2010Prop51ColorRGB
 90
-16777216
102
RTVSPost2010PropOp51
 70
     0
102
RTVSPost2010Prop52
140
1.0
102
RTVSPost2010PropOp52
 70
     0
102
RTVSPost2010Prop53
 90
        2
102
RTVSPost2010PropOp53
 70
     1
102
RTVSPost2010Prop54
  1
strokes_ogs.tif
102
RTVSPost2010PropOp54
 70
     1
102
RTVSPost2010Prop55
280
     0
102
RTVSPost2010PropOp55
 70
     1
102
RTVSPost2010Prop56
140
1.0
102
RTVSPost2010PropOp56
 70
     1
102
RTVSPost2010Prop57
140
1.0
102
RTVSPost2010PropOp57
 70
     1
  0
ENDSEC
  0
EOF
