  0
SECTION
  2
HEADER
  9
$ACADVER
  1
AC1018
  9
$ACADMAINTVER
 70
     0
  9
$DWGCODEPAGE
  3
ANSI_1252
  9
$INSBASE
 10
0.0
 20
0.0
 30
0.0
  9
$EXTMIN
 10
-23.00000000000001
 20
-35.00000000000002
 30
-146.088723439379
  9
$EXTMAX
 10
452.5
 20
34.99999999999999
 30
35.0
  9
$LIMMIN
 10
0.0
 20
0.0
  9
$LIMMAX
 10
12.0
 20
9.0
  9
$ORTHOMODE
 70
     0
  9
$REGENMODE
 70
     1
  9
$FILLMODE
 70
     1
  9
$QTEXTMODE
 70
     0
  9
$MIRRTEXT
 70
     1
  9
$LTSCALE
 40
1.0
  9
$ATTMODE
 70
     1
  9
$TEXTSIZE
 40
0.2
  9
$TRACEWID
 40
0.05
  9
$TEXTSTYLE
  7
Standard
  9
$CLAYER
  8
Predefinito
  9
$CELTYPE
  6
ByLayer
  9
$CECOLOR
 62
   256
  9
$CELTSCALE
 40
1.0
  9
$DISPSILH
 70
     0
  9
$DIMSCALE
 40
1.0
  9
$DIMASZ
 40
0.18
  9
$DIMEXO
 40
0.0625
  9
$DIMDLI
 40
0.38
  9
$DIMRND
 40
0.0
  9
$DIMDLE
 40
0.0
  9
$DIMEXE
 40
0.18
  9
$DIMTP
 40
0.0
  9
$DIMTM
 40
0.0
  9
$DIMTXT
 40
0.18
  9
$DIMCEN
 40
0.09
  9
$DIMTSZ
 40
0.0
  9
$DIMTOL
 70
     0
  9
$DIMLIM
 70
     0
  9
$DIMTIH
 70
     1
  9
$DIMTOH
 70
     1
  9
$DIMSE1
 70
     0
  9
$DIMSE2
 70
     0
  9
$DIMTAD
 70
     0
  9
$DIMZIN
 70
     0
  9
$DIMBLK
  1

  9
$DIMASO
 70
     1
  9
$DIMSHO
 70
     1
  9
$DIMPOST
  1

  9
$DIMAPOST
  1

  9
$DIMALT
 70
     0
  9
$DIMALTD
 70
     2
  9
$DIMALTF
 40
25.4
  9
$DIMLFAC
 40
1.0
  9
$DIMTOFL
 70
     0
  9
$DIMTVP
 40
0.0
  9
$DIMTIX
 70
     0
  9
$DIMSOXD
 70
     0
  9
$DIMSAH
 70
     0
  9
$DIMBLK1
  1

  9
$DIMBLK2
  1

  9
$DIMSTYLE
  2
Standard
  9
$DIMCLRD
 70
     0
  9
$DIMCLRE
 70
     0
  9
$DIMCLRT
 70
     0
  9
$DIMTFAC
 40
1.0
  9
$DIMGAP
 40
0.09
  9
$DIMJUST
 70
     0
  9
$DIMSD1
 70
     0
  9
$DIMSD2
 70
     0
  9
$DIMTOLJ
 70
     1
  9
$DIMTZIN
 70
     0
  9
$DIMALTZ
 70
     0
  9
$DIMALTTZ
 70
     0
  9
$DIMUPT
 70
     0
  9
$DIMDEC
 70
     4
  9
$DIMTDEC
 70
     4
  9
$DIMALTU
 70
     2
  9
$DIMALTTD
 70
     2
  9
$DIMTXSTY
  7
Standard
  9
$DIMAUNIT
 70
     0
  9
$DIMADEC
 70
     0
  9
$DIMALTRND
 40
0.0
  9
$DIMAZIN
 70
     0
  9
$DIMDSEP
 70
    46
  9
$DIMATFIT
 70
     3
  9
$DIMFRAC
 70
     0
  9
$DIMLDRBLK
  1

  9
$DIMLUNIT
 70
     2
  9
$DIMLWD
 70
    -2
  9
$DIMLWE
 70
    -2
  9
$DIMTMOVE
 70
     2
  9
$LUNITS
 70
     2
  9
$LUPREC
 70
     3
  9
$SKETCHINC
 40
0.1
  9
$FILLETRAD
 40
0.5
  9
$AUNITS
 70
     0
  9
$AUPREC
 70
     0
  9
$MENU
  1
.
  9
$ELEVATION
 40
0.0
  9
$PELEVATION
 40
0.0
  9
$THICKNESS
 40
0.0
  9
$LIMCHECK
 70
     0
  9
$CHAMFERA
 40
0.0
  9
$CHAMFERB
 40
0.0
  9
$CHAMFERC
 40
0.0
  9
$CHAMFERD
 40
0.0
  9
$SKPOLY
 70
     0
  9
$TDCREATE
 40
2459027.501748935
  9
$TDUCREATE
 40
2459027.418415602
  9
$TDUPDATE
 40
2459027.501765613
  9
$TDUUPDATE
 40
2459027.41843228
  9
$TDINDWG
 40
0.0000000116
  9
$TDUSRTIMER
 40
0.0000000116
  9
$USRTIMER
 70
     1
  9
$ANGBASE
 50
0.0
  9
$ANGDIR
 70
     0
  9
$PDMODE
 70
     0
  9
$PDSIZE
 40
0.0
  9
$PLINEWID
 40
0.0
  9
$SPLFRAME
 70
     0
  9
$SPLINETYPE
 70
     6
  9
$SPLINESEGS
 70
     8
  9
$HANDSEED
  5
235
  9
$SURFTAB1
 70
     6
  9
$SURFTAB2
 70
     6
  9
$SURFTYPE
 70
     6
  9
$SURFU
 70
     6
  9
$SURFV
 70
     6
  9
$UCSBASE
  2

  9
$UCSNAME
  2

  9
$UCSORG
 10
0.0
 20
0.0
 30
0.0
  9
$UCSXDIR
 10
1.0
 20
0.0
 30
0.0
  9
$UCSYDIR
 10
0.0
 20
1.0
 30
0.0
  9
$UCSORTHOREF
  2

  9
$UCSORTHOVIEW
 70
     0
  9
$UCSORGTOP
 10
0.0
 20
0.0
 30
0.0
  9
$UCSORGBOTTOM
 10
0.0
 20
0.0
 30
0.0
  9
$UCSORGLEFT
 10
0.0
 20
0.0
 30
0.0
  9
$UCSORGRIGHT
 10
0.0
 20
0.0
 30
0.0
  9
$UCSORGFRONT
 10
0.0
 20
0.0
 30
0.0
  9
$UCSORGBACK
 10
0.0
 20
0.0
 30
0.0
  9
$PUCSBASE
  2

  9
$PUCSNAME
  2

  9
$PUCSORG
 10
0.0
 20
0.0
 30
0.0
  9
$PUCSXDIR
 10
1.0
 20
0.0
 30
0.0
  9
$PUCSYDIR
 10
0.0
 20
1.0
 30
0.0
  9
$PUCSORTHOREF
  2

  9
$PUCSORTHOVIEW
 70
     0
  9
$PUCSORGTOP
 10
0.0
 20
0.0
 30
0.0
  9
$PUCSORGBOTTOM
 10
0.0
 20
0.0
 30
0.0
  9
$PUCSORGLEFT
 10
0.0
 20
0.0
 30
0.0
  9
$PUCSORGRIGHT
 10
0.0
 20
0.0
 30
0.0
  9
$PUCSORGFRONT
 10
0.0
 20
0.0
 30
0.0
  9
$PUCSORGBACK
 10
0.0
 20
0.0
 30
0.0
  9
$USERI1
 70
     0
  9
$USERI2
 70
     0
  9
$USERI3
 70
     0
  9
$USERI4
 70
     0
  9
$USERI5
 70
     0
  9
$USERR1
 40
0.0
  9
$USERR2
 40
0.0
  9
$USERR3
 40
0.0
  9
$USERR4
 40
0.0
  9
$USERR5
 40
0.0
  9
$WORLDVIEW
 70
     1
  9
$SHADEDGE
 70
     3
  9
$SHADEDIF
 70
    70
  9
$TILEMODE
 70
     1
  9
$MAXACTVP
 70
    64
  9
$PINSBASE
 10
0.0
 20
0.0
 30
0.0
  9
$PLIMCHECK
 70
     0
  9
$PEXTMIN
 10
1.000000000000000E+20
 20
1.000000000000000E+20
 30
1.000000000000000E+20
  9
$PEXTMAX
 10
-1.000000000000000E+20
 20
-1.000000000000000E+20
 30
-1.000000000000000E+20
  9
$PLIMMIN
 10
0.0
 20
0.0
  9
$PLIMMAX
 10
12.0
 20
9.0
  9
$UNITMODE
 70
     0
  9
$VISRETAIN
 70
     1
  9
$PLINEGEN
 70
     0
  9
$PSLTSCALE
 70
     1
  9
$TREEDEPTH
 70
  3020
  9
$CMLSTYLE
  2
Standard
  9
$CMLJUST
 70
     0
  9
$CMLSCALE
 40
1.0
  9
$PROXYGRAPHICS
 70
     1
  9
$MEASUREMENT
 70
     0
  9
$CELWEIGHT
370
    -1
  9
$ENDCAPS
280
     0
  9
$JOINSTYLE
280
     0
  9
$LWDISPLAY
290
     0
  9
$INSUNITS
 70
     4
  9
$HYPERLINKBASE
  1

  9
$STYLESHEET
  1

  9
$XEDIT
290
     1
  9
$CEPSNTYPE
380
     0
  9
$PSTYLEMODE
290
     1
  9
$FINGERPRINTGUID
  2
{61E54CB8-898D-4EB8-A24E-2B6F64964D25}
  9
$VERSIONGUID
  2
{FAEB1C32-E019-11D5-929B-00C0DF256EC4}
  9
$EXTNAMES
290
     1
  9
$PSVPSCALE
 40
0.0
  9
$OLESTARTUP
290
     0
  9
$SORTENTS
280
   127
  9
$INDEXCTL
280
     0
  9
$HIDETEXT
280
     1
  9
$XCLIPFRAME
290
     0
  9
$HALOGAP
280
     0
  9
$OBSCOLOR
 70
   257
  9
$OBSLTYPE
280
     0
  9
$INTERSECTIONDISPLAY
280
     0
  9
$INTERSECTIONCOLOR
 70
   257
  9
$DIMASSOC
280
     2
  9
$PROJECTNAME
  1

  0
ENDSEC
  0
SECTION
  2
CLASSES
  0
CLASS
  1
ACDBDICTIONARYWDFLT
  2
AcDbDictionaryWithDefault
  3
ObjectDBX Classes
 90
        0
 91
        4
280
     0
281
     0
  0
CLASS
  1
VISUALSTYLE
  2
AcDbVisualStyle
  3
ObjectDBX Classes
 90
     4095
 91
        4
280
     0
281
     0
  0
CLASS
  1
MATERIAL
  2
AcDbMaterial
  3
ObjectDBX Classes
 90
     1153
 91
        4
280
     0
281
     0
  0
CLASS
  1
SCALE
  2
AcDbScale
  3
ObjectDBX Classes
 90
     1153
 91
        4
280
     0
281
     0
  0
CLASS
  1
SUN
  2
AcDbSun
  3
SCENEOE
 90
     1153
 91
        4
280
     0
281
     0
  0
CLASS
  1
DICTIONARYVAR
  2
AcDbDictionaryVar
  3
ObjectDBX Classes
 90
        0
 91
        4
280
     0
281
     0
  0
ENDSEC
  0
SECTION
  2
TABLES
  0
TABLE
  2
VPORT
  5
8
330
0
100
AcDbSymbolTable
 70
     1
  0
VPORT
  5
29
330
8
100
AcDbSymbolTableRecord
100
AcDbViewportTableRecord
  2
*Active
 70
     0
 10
0.0
 20
0.0
 11
1.0
 21
1.0
 12
214.75
 22
-0.0000000000000071
 13
0.0
 23
0.0
 14
0.5
 24
0.5
 15
0.5
 25
0.5
 16
0.0
 26
0.0
 36
1.0
 17
0.0
 27
0.0
 37
0.0
 40
71.40000000000002
 41
6.792857142857141
 42
50.0
 43
0.0
 44
0.0
 50
0.0
 51
0.0
 71
     0
 72
   100
 73
     1
 74
     3
 75
     0
 76
     0
 77
     0
 78
     0
281
     0
 65
     1
110
0.0
120
0.0
130
0.0
111
1.0
121
0.0
131
0.0
112
0.0
122
1.0
132
0.0
 79
     0
146
0.0
  0
ENDTAB
  0
TABLE
  2
LTYPE
  5
5
330
0
100
AcDbSymbolTable
 70
     1
  0
LTYPE
  5
14
330
5
100
AcDbSymbolTableRecord
100
AcDbLinetypeTableRecord
  2
ByBlock
 70
     0
  3

 72
    65
 73
     0
 40
0.0
  0
LTYPE
  5
15
330
5
100
AcDbSymbolTableRecord
100
AcDbLinetypeTableRecord
  2
ByLayer
 70
     0
  3

 72
    65
 73
     0
 40
0.0
  0
LTYPE
  5
16
330
5
100
AcDbSymbolTableRecord
100
AcDbLinetypeTableRecord
  2
Continuous
 70
     0
  3
Solid line
 72
    65
 73
     0
 40
0.0
  0
ENDTAB
  0
TABLE
  2
LAYER
  5
2
330
0
100
AcDbSymbolTable
 70
     2
  0
LAYER
  5
10
330
2
100
AcDbSymbolTableRecord
100
AcDbLayerTableRecord
  2
0
 70
     0
 62
     7
  6
Continuous
370
    -3
390
F
  0
LAYER
  5
6A
330
2
100
AcDbSymbolTableRecord
100
AcDbLayerTableRecord
  2
Predefinito
 70
     0
 62
    18
420
        0
  6
Continuous
370
    -3
390
F
  0
ENDTAB
  0
TABLE
  2
STYLE
  5
3
330
0
100
AcDbSymbolTable
 70
     1
  0
STYLE
  5
11
330
3
100
AcDbSymbolTableRecord
100
AcDbTextStyleTableRecord
  2
Standard
 70
     0
 40
0.0
 41
1.0
 50
0.0
 71
     0
 42
0.2
  3
txt
  4

  0
ENDTAB
  0
TABLE
  2
VIEW
  5
6
330
0
100
AcDbSymbolTable
 70
     0
  0
ENDTAB
  0
TABLE
  2
UCS
  5
7
330
0
100
AcDbSymbolTable
 70
     0
  0
ENDTAB
  0
TABLE
  2
APPID
  5
9
330
0
100
AcDbSymbolTable
 70
     1
  0
APPID
  5
12
330
9
100
AcDbSymbolTableRecord
100
AcDbRegAppTableRecord
  2
ACAD
 70
     0
  0
ENDTAB
  0
TABLE
  2
DIMSTYLE
  5
A
330
0
100
AcDbSymbolTable
 70
     1
100
AcDbDimStyleTable
  0
DIMSTYLE
105
27
330
A
100
AcDbSymbolTableRecord
100
AcDbDimStyleTableRecord
  2
Standard
 70
     0
178
     0
340
11
  0
ENDTAB
  0
TABLE
  2
BLOCK_RECORD
  5
1
330
0
100
AcDbSymbolTable
 70
     9
  0
BLOCK_RECORD
  5
1F
330
1
100
AcDbSymbolTableRecord
100
AcDbBlockTableRecord
  2
*Model_Space
340
22
  0
BLOCK_RECORD
  5
1B
330
1
100
AcDbSymbolTableRecord
100
AcDbBlockTableRecord
  2
*Paper_Space
340
1E
  0
BLOCK_RECORD
  5
23
330
1
100
AcDbSymbolTableRecord
100
AcDbBlockTableRecord
  2
*Paper_Space0
340
26
  0
BLOCK_RECORD
  5
6B
330
1
100
AcDbSymbolTableRecord
100
AcDbBlockTableRecord
  2
3100BR01-00
340
0
102
{BLKREFS
331
1F7
102
}
  0
BLOCK_RECORD
  5
6C
330
1
100
AcDbSymbolTableRecord
100
AcDbBlockTableRecord
  2
10NI03060YY
340
0
102
{BLKREFS
331
C9
102
}
  0
BLOCK_RECORD
  5
CA
330
1
100
AcDbSymbolTableRecord
100
AcDbBlockTableRecord
  2
10BO08360YY
340
0
102
{BLKREFS
331
134
102
}
  0
BLOCK_RECORD
  5
135
330
1
100
AcDbSymbolTableRecord
100
AcDbBlockTableRecord
  2
10GG0776000
340
0
102
{BLKREFS
331
152
102
}
  0
BLOCK_RECORD
  5
153
330
1
100
AcDbSymbolTableRecord
100
AcDbBlockTableRecord
  2
10BR07660YY
340
0
102
{BLKREFS
331
1F4
102
}
  0
BLOCK_RECORD
  5
154
330
1
100
AcDbSymbolTableRecord
100
AcDbBlockTableRecord
  2
10ST02960YY
340
0
102
{BLKREFS
331
19F
102
}
  0
BLOCK_RECORD
  5
1A0
330
1
100
AcDbSymbolTableRecord
100
AcDbBlockTableRecord
  2
10ST03060YY
340
0
102
{BLKREFS
331
1E0
102
}
  0
BLOCK_RECORD
  5
1E1
330
1
100
AcDbSymbolTableRecord
100
AcDbBlockTableRecord
  2
10TP01960YY
340
0
102
{BLKREFS
331
1F1
102
}
  0
ENDTAB
  0
ENDSEC
  0
SECTION
  2
BLOCKS
  0
BLOCK
  5
20
330
1F
100
AcDbEntity
  8
0
100
AcDbBlockBegin
  2
*Model_Space
 70
     0
 10
0.0
 20
0.0
 30
0.0
  3
*Model_Space
  1
*Model_Space
  0
ENDBLK
  5
21
330
1F
100
AcDbEntity
  8
0
100
AcDbBlockEnd
  0
BLOCK
  5
1C
330
1B
100
AcDbEntity
 67
     1
  8
0
100
AcDbBlockBegin
  2
*Paper_Space
 70
     0
 10
0.0
 20
0.0
 30
0.0
  3
*Paper_Space
  1
*Paper_Space
  0
ENDBLK
  5
1D
330
1B
100
AcDbEntity
 67
     1
  8
0
100
AcDbBlockEnd
  0
BLOCK
  5
24
330
23
100
AcDbEntity
  8
0
100
AcDbBlockBegin
  2
*Paper_Space0
 70
     0
 10
0.0
 20
0.0
 30
0.0
  3
*Paper_Space0
  1
*Paper_Space0
  0
ENDBLK
  5
25
330
23
100
AcDbEntity
  8
0
100
AcDbBlockEnd
  0
BLOCK
  5
1F5
330
6B
100
AcDbEntity
  8
0
100
AcDbBlockBegin
  2
3100BR01-00
 70
     0
 10
0.0
 20
0.0
 30
0.0
  3
3100BR01-00
  1
3100BR01-00
  0
INSERT
  5
C9
330
6B
100
AcDbEntity
  8
Predefinito
100
AcDbBlockReference
  2
10NI03060YY
 10
-23.0
 20
-0.0000000000000109
 30
0.00000000000001
 50
270.0
210
5.189021871153331E-17
220
-0.9242245927363032
230
-0.3818493186865921
  0
INSERT
  5
134
330
6B
100
AcDbEntity
  8
Predefinito
100
AcDbBlockReference
  2
10BO08360YY
 10
0.0000000000000098
 20
-0.0000000000000139
 30
0.0
 50
90.00000000000001
210
-1.0
220
2.119689527716420E-17
230
-5.551115123125780E-17
  0
INSERT
  5
152
330
6B
100
AcDbEntity
  8
Predefinito
100
AcDbBlockReference
  2
10GG0776000
 10
0.0000000000000098
 20
-0.0000000000000145
 30
1.79999999999999
 50
90.00000000000001
210
-1.0
220
2.119689527716420E-17
230
-5.551115123125780E-17
  0
INSERT
  5
1F4
330
6B
100
AcDbEntity
  8
Predefinito
100
AcDbBlockReference
  2
10BR07660YY
 10
0.0000000000000087
 20
-0.0000000000000063
 30
-0.0000000000000139
 50
0.0000000000000035
  0
ENDBLK
  5
1F6
330
6B
100
AcDbEntity
  8
0
100
AcDbBlockEnd
  0
BLOCK
  5
C7
330
6C
100
AcDbEntity
  8
0
100
AcDbBlockBegin
  2
10NI03060YY
 70
     0
 10
0.0
 20
0.0
 30
0.0
  3
10NI03060YY
  1
10NI03060YY
  0
ARC
  5
6D
330
6C
100
AcDbEntity
  8
Predefinito
 62
     9
420
 11519197
100
AcDbCircle
 10
0.0
 20
0.0000000000000031
 30
1.000000000000003
 40
10.45
210
6.123031769111889E-17
220
1.0
230
4.674623261579607E-16
100
AcDbArc
 50
270.0
 51
90.0
  0
ARC
  5
6E
330
6C
100
AcDbEntity
  8
Predefinito
 62
     9
420
 11519197
100
AcDbCircle
 10
0.0
 20
0.0000000000000031
 30
1.000000000000003
 40
10.45
210
6.123031769111889E-17
220
1.0
230
4.674623261579607E-16
100
AcDbArc
 50
90.0
 51
270.0
  0
ARC
  5
6F
330
6C
100
AcDbEntity
  8
Predefinito
 62
     9
420
 11519197
100
AcDbCircle
 10
0.0
 20
0.0000000000000044
 30
25.0
 40
10.45
210
6.123031769111889E-17
220
1.0
230
-1.874637814280097E-33
100
AcDbArc
 50
90.00000000000001
 51
270.0
  0
ARC
  5
70
330
6C
100
AcDbEntity
  8
Predefinito
 62
     9
420
 11519197
100
AcDbCircle
 10
0.0
 20
0.0000000000000044
 30
25.0
 40
10.45
210
6.123031769111889E-17
220
1.0
230
-1.499710251424093E-33
100
AcDbArc
 50
270.0
 51
90.0
  0
LINE
  5
71
330
6C
100
AcDbEntity
  8
Predefinito
 62
     9
420
 11519197
100
AcDbLine
 10
0.000000000000001
 20
25.0
 30
-10.45
 11
0.0000000000000001
 21
1.000000000000008
 31
-10.45
  0
ARC
  5
72
330
6C
100
AcDbEntity
  8
Predefinito
 62
     9
420
 11519197
100
AcDbCircle
 10
0.0
 20
0.0000000000000071
 30
31.0
 40
16.4
210
6.123031769111886E-17
220
1.0
230
-1.874637814280097E-33
100
AcDbArc
 50
90.00000000000001
 51
270.0
  0
ARC
  5
73
330
6C
100
AcDbEntity
  8
Predefinito
 62
     9
420
 11519197
100
AcDbCircle
 10
0.0
 20
0.0000000000000071
 30
31.0
 40
16.4
210
6.123031769111886E-17
220
1.0
230
-1.499710251424093E-33
100
AcDbArc
 50
270.0
 51
90.0
  0
ARC
  5
74
330
6C
100
AcDbEntity
  8
Predefinito
 62
     9
420
 11519197
100
AcDbCircle
 10
0.0
 20
0.0000000000000044
 30
25.0
 40
16.4
210
6.123031769111886E-17
220
1.0
230
1.083144414268446E-16
100
AcDbArc
 50
270.0
 51
90.0
  0
ARC
  5
75
330
6C
100
AcDbEntity
  8
Predefinito
 62
     9
420
 11519197
100
AcDbCircle
 10
0.0
 20
0.0000000000000026
 30
25.0
 40
16.4
210
6.123031769111886E-17
220
1.0
230
1.083144414268446E-16
100
AcDbArc
 50
90.00000000000001
 51
270.0
  0
LINE
  5
76
330
6C
100
AcDbEntity
  8
Predefinito
 62
     9
420
 11519197
100
AcDbLine
 10
0.0000000000000011
 20
31.0
 30
-16.39999999999999
 11
0.0000000000000007
 21
25.0
 31
-16.39999999999999
  0
ARC
  5
77
330
6C
100
AcDbEntity
  8
Predefinito
 62
     9
420
 11519197
100
AcDbCircle
 10
0.0
 20
0.0000000000000053
 30
33.5
 40
14.75
210
6.123031769111886E-17
220
1.0
230
-1.874637814280098E-33
100
AcDbArc
 50
90.00000000000001
 51
270.0
  0
ARC
  5
78
330
6C
100
AcDbEntity
  8
Predefinito
 62
     9
420
 11519197
100
AcDbCircle
 10
0.0
 20
0.0000000000000053
 30
33.5
 40
14.75
210
6.123031769111886E-17
220
1.0
230
-1.499710251424091E-33
100
AcDbArc
 50
270.0
 51
90.0
  0
ARC
  5
79
330
6C
100
AcDbEntity
  8
Predefinito
 62
     9
420
 11519197
100
AcDbCircle
 10
0.0
 20
0.0000000000000137
 30
31.0
 40
14.75
210
6.123031769111886E-17
220
1.0
230
-2.408619443254577E-16
100
AcDbArc
 50
270.0
 51
90.0
  0
ARC
  5
7A
330
6C
100
AcDbEntity
  8
Predefinito
 62
     9
420
 11519197
100
AcDbCircle
 10
0.0
 20
0.0000000000000137
 30
31.0
 40
14.75
210
6.123031769111886E-17
220
1.0
230
-2.408619443254577E-16
100
AcDbArc
 50
90.00000000000001
 51
270.0
  0
LINE
  5
7B
330
6C
100
AcDbEntity
  8
Predefinito
 62
     9
420
 11519197
100
AcDbLine
 10
0.0000000000000013
 20
33.5
 30
-14.74999999999999
 11
0.0000000000000012
 21
31.0
 31
-14.74999999999999
  0
ARC
  5
7C
330
6C
100
AcDbEntity
  8
Predefinito
 62
     9
420
 11519197
100
AcDbCircle
 10
0.0
 20
0.0000000000000062
 30
38.5
 40
16.0
210
6.123031769111886E-17
220
1.0
230
-2.264165805036851E-48
100
AcDbArc
 50
270.0
 51
90.0
  0
ARC
  5
7D
330
6C
100
AcDbEntity
  8
Predefinito
 62
     9
420
 11519197
100
AcDbCircle
 10
0.0
 20
0.0000000000000071
 30
38.5
 40
16.0
210
6.123031769111886E-17
220
1.0
230
2.264165805036851E-48
100
AcDbArc
 50
90.00000000000001
 51
270.0
  0
ARC
  5
7E
330
6C
100
AcDbEntity
  8
Predefinito
 62
     9
420
 11519197
100
AcDbCircle
 10
0.0
 20
0.0000000000000062
 30
33.5
 40
16.0
210
6.123031769111886E-17
220
1.0
230
-1.499710251424091E-33
100
AcDbArc
 50
270.0
 51
90.0
  0
ARC
  5
7F
330
6C
100
AcDbEntity
  8
Predefinito
 62
     9
420
 11519197
100
AcDbCircle
 10
0.0
 20
0.0000000000000071
 30
33.5
 40
16.0
210
6.123031769111886E-17
220
1.0
230
-1.874637814280098E-33
100
AcDbArc
 50
90.00000000000001
 51
270.0
  0
LINE
  5
80
330
6C
100
AcDbEntity
  8
Predefinito
 62
     9
420
 11519197
100
AcDbLine
 10
0.0000000000000024
 20
38.5
 30
-15.99999999999999
 11
0.0000000000000013
 21
33.5
 31
-15.99999999999999
  0
ARC
  5
81
330
6C
100
AcDbEntity
  8
Predefinito
 62
     9
420
 11519197
100
AcDbCircle
 10
0.0
 20
0.0000000000000053
 30
28.0
 40
12.0
210
6.123031769111886E-17
220
1.0
230
-1.499710251424101E-33
100
AcDbArc
 50
90.0
 51
270.0
  0
ARC
  5
82
330
6C
100
AcDbEntity
  8
Predefinito
 62
     9
420
 11519197
100
AcDbCircle
 10
0.0
 20
0.0000000000000053
 30
28.0
 40
12.0
210
6.123031769111886E-17
220
1.0
230
-1.874637814280107E-33
100
AcDbArc
 50
270.0
 51
90.0
  0
ARC
  5
83
330
6C
100
AcDbEntity
  8
Predefinito
 62
     9
420
 11519197
100
AcDbCircle
 10
0.0
 20
0.0000000000000053
 30
39.5
 40
12.0
210
6.123031769111886E-17
220
1.0
230
-1.499710251424086E-33
100
AcDbArc
 50
270.0
 51
90.0
  0
ARC
  5
84
330
6C
100
AcDbEntity
  8
Predefinito
 62
     9
420
 11519197
100
AcDbCircle
 10
0.0
 20
0.0000000000000053
 30
39.5
 40
12.0
210
6.123031769111886E-17
220
1.0
230
-1.874637814280104E-33
100
AcDbArc
 50
90.00000000000001
 51
270.0
  0
LINE
  5
85
330
6C
100
AcDbEntity
  8
Predefinito
 62
     9
420
 11519197
100
AcDbLine
 10
0.0000000000000018
 20
39.5
 30
-11.99999999999999
 11
0.0000000000000011
 21
28.0
 31
-11.99999999999999
  0
ARC
  5
86
330
6C
100
AcDbEntity
  8
Predefinito
 62
     9
420
 11519197
100
AcDbCircle
 10
0.0
 20
0.0000000000000031
 30
0.0000000000000005
 40
7.5
210
6.123031769111886E-17
220
1.0
230
4.146885336205400E-16
100
AcDbArc
 50
90.0
 51
270.0
  0
ARC
  5
87
330
6C
100
AcDbEntity
  8
Predefinito
 62
     9
420
 11519197
100
AcDbCircle
 10
0.0
 20
0.0000000000000036
 30
0.0000000000000005
 40
7.5
210
6.123031769111886E-17
220
1.0
230
4.146885336205399E-16
100
AcDbArc
 50
270.0
 51
90.0
  0
ARC
  5
88
330
6C
100
AcDbEntity
  8
Predefinito
 62
     9
420
 11519197
100
AcDbCircle
 10
0.0
 20
0.0000000000000053
 30
28.0
 40
7.5
210
6.123031769111886E-17
220
1.0
230
-1.499710251424090E-33
100
AcDbArc
 50
270.0
 51
90.0
  0
ARC
  5
89
330
6C
100
AcDbEntity
  8
Predefinito
 62
     9
420
 11519197
100
AcDbCircle
 10
0.0
 20
0.0000000000000053
 30
28.0
 40
7.5
210
6.123031769111886E-17
220
1.0
230
-1.874637814280102E-33
100
AcDbArc
 50
90.00000000000001
 51
270.0
  0
LINE
  5
8A
330
6C
100
AcDbEntity
  8
Predefinito
 62
     9
420
 11519197
100
AcDbLine
 10
0.0000000000000013
 20
28.0
 30
-7.499999999999995
 11
-0.0000000000000004
 21
0.0000000000000036
 31
-7.499999999999997
  0
ARC
  5
8B
330
6C
100
AcDbEntity
  8
Predefinito
 62
     9
420
 11519197
100
AcDbCircle
 10
0.0
 20
0.0000000000000062
 30
39.5
 40
15.0
210
6.123031769111835E-17
220
1.0
230
1.874637814280101E-33
100
AcDbArc
 50
270.0
 51
90.0
  0
ARC
  5
8C
330
6C
100
AcDbEntity
  8
Predefinito
 62
     9
420
 11519197
100
AcDbCircle
 10
0.0
 20
0.0000000000000062
 30
39.5
 40
15.0
210
6.123031769111838E-17
220
1.0
230
1.499710251424067E-33
100
AcDbArc
 50
90.0
 51
270.0
  0
LINE
  5
8D
330
6C
100
AcDbEntity
  8
Predefinito
 62
     9
420
 11519197
100
AcDbLine
 10
0.0000000000000032
 20
39.5
 30
-14.99999999999999
 11
0.0000000000000024
 21
38.5
 31
-15.99999999999999
  0
ARC
  5
8E
330
6C
100
AcDbEntity
  8
Predefinito
 62
     9
420
 11519197
100
AcDbCircle
 10
0.0
 20
0.0000000000000036
 30
0.0000000000000006
 40
9.45
210
6.123031769111920E-17
220
1.0
230
6.570644851142009E-17
100
AcDbArc
 50
270.0
 51
90.0
  0
ARC
  5
8F
330
6C
100
AcDbEntity
  8
Predefinito
 62
     9
420
 11519197
100
AcDbCircle
 10
0.0
 20
0.0000000000000036
 30
0.0000000000000006
 40
9.45
210
6.123031769111920E-17
220
1.0
230
6.570644851142009E-17
100
AcDbArc
 50
90.00000000000001
 51
270.0
  0
LINE
  5
90
330
6C
100
AcDbEntity
  8
Predefinito
 62
     9
420
 11519197
100
AcDbLine
 10
0.0000000000000005
 20
0.0
 30
9.450000000000003
 11
0.0000000000000001
 21
0.9999999999999978
 31
10.45
  0
LINE
  5
91
330
6C
100
AcDbEntity
  8
Predefinito
 62
     9
420
 11519197
100
AcDbLine
 10
-0.0000000000000009
 20
0.0
 30
9.450000000000003
 11
-0.0000000000000009
 21
0.0000000000000001
 31
7.500000000000003
  0
LINE
  5
92
330
6C
100
AcDbEntity
  8
Predefinito
 62
     9
420
 11519197
100
AcDbLine
 10
-0.0000000000000009
 20
0.000000000000001
 30
-7.499999999999996
 11
-0.0000000000000009
 21
0.0000000000000011
 31
-9.449999999999996
  0
LINE
  5
93
330
6C
100
AcDbEntity
  8
Predefinito
 62
     9
420
 11519197
100
AcDbLine
 10
-9.45
 20
0.0000000000000011
 30
0.0000000000000044
 11
-7.5
 21
0.000000000000001
 31
0.0000000000000044
  0
LINE
  5
94
330
6C
100
AcDbEntity
  8
Predefinito
 62
     9
420
 11519197
100
AcDbLine
 10
7.500000000000002
 20
0.0000000000000001
 30
0.0000000000000044
 11
9.449999999999996
 21
0.0
 31
0.0000000000000044
  0
CIRCLE
  5
95
330
6C
100
AcDbEntity
  8
Predefinito
 62
     9
420
 11519197
100
AcDbCircle
 10
0.0
 20
0.0000000000000037
 30
13.0
 40
10.45
210
6.123031769111886E-17
220
1.0
230
6.123031769111886E-17
  0
LINE
  5
96
330
6C
100
AcDbEntity
  8
Predefinito
 62
     9
420
 11519197
100
AcDbLine
 10
10.45
 20
25.0
 30
0.0000000000000052
 11
10.45
 21
1.000000000000005
 31
0.0000000000000037
  0
LINE
  5
97
330
6C
100
AcDbEntity
  8
Predefinito
 62
     9
420
 11519197
100
AcDbLine
 10
0.0000000000000015
 20
25.0
 30
10.45
 11
0.0000000000000001
 21
1.000000000000001
 31
10.45
  0
LINE
  5
98
330
6C
100
AcDbEntity
  8
Predefinito
 62
     9
420
 11519197
100
AcDbLine
 10
-10.45
 20
25.0
 30
0.0000000000000052
 11
-10.45
 21
1.000000000000003
 31
0.0000000000000037
  0
LINE
  5
99
330
6C
100
AcDbEntity
  8
Predefinito
 62
     9
420
 11519197
100
AcDbLine
 10
0.0000000000000015
 20
25.0
 30
16.40000000000001
 11
0.0000000000000015
 21
25.0
 31
10.45
  0
LINE
  5
9A
330
6C
100
AcDbEntity
  8
Predefinito
 62
     9
420
 11519197
100
AcDbLine
 10
0.0000000000000015
 20
25.0
 30
-10.44999999999999
 11
0.0000000000000015
 21
25.0
 31
-16.39999999999999
  0
LINE
  5
9B
330
6C
100
AcDbEntity
  8
Predefinito
 62
     9
420
 11519197
100
AcDbLine
 10
-16.4
 20
25.0
 30
0.0000000000000036
 11
-10.45
 21
25.0
 31
0.0000000000000036
  0
LINE
  5
9C
330
6C
100
AcDbEntity
  8
Predefinito
 62
     9
420
 11519197
100
AcDbLine
 10
10.45
 20
25.0
 30
0.0000000000000036
 11
16.4
 21
25.0
 31
0.0000000000000036
  0
CIRCLE
  5
9D
330
6C
100
AcDbEntity
  8
Predefinito
 62
     9
420
 11519197
100
AcDbCircle
 10
0.0
 20
0.0000000000000037
 30
28.0
 40
16.4
210
6.123031769111886E-17
220
1.0
230
6.123031769111886E-17
  0
LINE
  5
9E
330
6C
100
AcDbEntity
  8
Predefinito
 62
     9
420
 11519197
100
AcDbLine
 10
16.4
 20
31.0
 30
0.0000000000000056
 11
16.4
 21
25.0
 31
0.0000000000000052
  0
LINE
  5
9F
330
6C
100
AcDbEntity
  8
Predefinito
 62
     9
420
 11519197
100
AcDbLine
 10
0.0000000000000019
 20
31.0
 30
16.4
 11
0.0000000000000015
 21
25.0
 31
16.4
  0
LINE
  5
A0
330
6C
100
AcDbEntity
  8
Predefinito
 62
     9
420
 11519197
100
AcDbLine
 10
-16.4
 20
31.0
 30
0.0000000000000056
 11
-16.4
 21
25.0
 31
0.0000000000000052
  0
LINE
  5
A1
330
6C
100
AcDbEntity
  8
Predefinito
 62
     9
420
 11519197
100
AcDbLine
 10
0.0000000000000019
 20
31.0
 30
-16.39999999999999
 11
0.0000000000000019
 21
31.0
 31
-14.74999999999999
  0
LINE
  5
A2
330
6C
100
AcDbEntity
  8
Predefinito
 62
     9
420
 11519197
100
AcDbLine
 10
0.0000000000000019
 20
31.0
 30
14.75000000000001
 11
0.0000000000000019
 21
31.0
 31
16.40000000000001
  0
LINE
  5
A3
330
6C
100
AcDbEntity
  8
Predefinito
 62
     9
420
 11519197
100
AcDbLine
 10
-16.4
 20
31.0
 30
0.0000000000000071
 11
-14.75
 21
31.0
 31
0.0000000000000071
  0
LINE
  5
A4
330
6C
100
AcDbEntity
  8
Predefinito
 62
     9
420
 11519197
100
AcDbLine
 10
14.75000000000001
 20
31.0
 30
0.0000000000000071
 11
16.4
 21
31.0
 31
0.0000000000000071
  0
CIRCLE
  5
A5
330
6C
100
AcDbEntity
  8
Predefinito
 62
     9
420
 11519197
100
AcDbCircle
 10
0.0
 20
0.0000000000000037
 30
32.24999999999999
 40
14.75
210
6.123031769111886E-17
220
1.0
230
6.123031769111886E-17
  0
LINE
  5
A6
330
6C
100
AcDbEntity
  8
Predefinito
 62
     9
420
 11519197
100
AcDbLine
 10
14.75
 20
33.5
 30
0.0000000000000057
 11
14.75
 21
31.0
 31
0.0000000000000056
  0
LINE
  5
A7
330
6C
100
AcDbEntity
  8
Predefinito
 62
     9
420
 11519197
100
AcDbLine
 10
0.0000000000000021
 20
33.5
 30
14.75000000000001
 11
0.0000000000000019
 21
31.0
 31
14.75000000000001
  0
LINE
  5
A8
330
6C
100
AcDbEntity
  8
Predefinito
 62
     9
420
 11519197
100
AcDbLine
 10
-14.75
 20
33.5
 30
0.0000000000000057
 11
-14.75
 21
31.0
 31
0.0000000000000056
  0
LINE
  5
A9
330
6C
100
AcDbEntity
  8
Predefinito
 62
     9
420
 11519197
100
AcDbLine
 10
0.0000000000000003
 20
33.5
 30
16.00000000000001
 11
0.0000000000000003
 21
33.5
 31
14.75000000000001
  0
LINE
  5
AA
330
6C
100
AcDbEntity
  8
Predefinito
 62
     9
420
 11519197
100
AcDbLine
 10
0.0000000000000003
 20
33.5
 30
-14.74999999999999
 11
0.0000000000000003
 21
33.5
 31
-16.0
  0
LINE
  5
AB
330
6C
100
AcDbEntity
  8
Predefinito
 62
     9
420
 11519197
100
AcDbLine
 10
-16.0
 20
33.5
 30
0.0000000000000089
 11
-14.75
 21
33.5
 31
0.0000000000000089
  0
LINE
  5
AC
330
6C
100
AcDbEntity
  8
Predefinito
 62
     9
420
 11519197
100
AcDbLine
 10
14.75
 20
33.5
 30
0.0000000000000089
 11
16.0
 21
33.5
 31
0.0000000000000089
  0
CIRCLE
  5
AD
330
6C
100
AcDbEntity
  8
Predefinito
 62
     9
420
 11519197
100
AcDbCircle
 10
0.0
 20
0.0000000000000037
 30
35.99999999999999
 40
16.0
210
6.123031769111886E-17
220
1.0
230
6.123031769111886E-17
  0
LINE
  5
AE
330
6C
100
AcDbEntity
  8
Predefinito
 62
     9
420
 11519197
100
AcDbLine
 10
16.0
 20
38.5
 30
0.000000000000006
 11
16.0
 21
33.5
 31
0.0000000000000057
  0
LINE
  5
AF
330
6C
100
AcDbEntity
  8
Predefinito
 62
     9
420
 11519197
100
AcDbLine
 10
0.0000000000000024
 20
38.5
 30
16.00000000000001
 11
0.0000000000000021
 21
33.5
 31
16.00000000000001
  0
LINE
  5
B0
330
6C
100
AcDbEntity
  8
Predefinito
 62
     9
420
 11519197
100
AcDbLine
 10
-16.0
 20
38.5
 30
0.000000000000006
 11
-16.0
 21
33.5
 31
0.0000000000000057
  0
LINE
  5
B1
330
6C
100
AcDbEntity
  8
Predefinito
 62
     9
420
 11519197
100
AcDbLine
 10
0.0000000000000024
 20
39.5
 30
-14.99999999999999
 11
0.0000000000000024
 21
39.5
 31
-11.99999999999999
  0
LINE
  5
B2
330
6C
100
AcDbEntity
  8
Predefinito
 62
     9
420
 11519197
100
AcDbLine
 10
0.0000000000000024
 20
39.5
 30
12.00000000000001
 11
0.0000000000000024
 21
39.5
 31
15.00000000000001
  0
LINE
  5
B3
330
6C
100
AcDbEntity
  8
Predefinito
 62
     9
420
 11519197
100
AcDbLine
 10
-15.0
 20
39.5
 30
0.0000000000000053
 11
-12.0
 21
39.5
 31
0.0000000000000053
  0
LINE
  5
B4
330
6C
100
AcDbEntity
  8
Predefinito
 62
     9
420
 11519197
100
AcDbLine
 10
12.0
 20
39.5
 30
0.0000000000000053
 11
15.00000000000001
 21
39.5
 31
0.0000000000000053
  0
CIRCLE
  5
B5
330
6C
100
AcDbEntity
  8
Predefinito
 62
     9
420
 11519197
100
AcDbCircle
 10
0.0
 20
0.0000000000000037
 30
33.75000000000003
 40
12.0
210
6.123031769111886E-17
220
1.0
230
6.123031769111886E-17
  0
LINE
  5
B6
330
6C
100
AcDbEntity
  8
Predefinito
 62
     9
420
 11519197
100
AcDbLine
 10
12.0
 20
39.5
 30
0.0000000000000061
 11
12.0
 21
28.0
 31
0.0000000000000054
  0
LINE
  5
B7
330
6C
100
AcDbEntity
  8
Predefinito
 62
     9
420
 11519197
100
AcDbLine
 10
0.0000000000000024
 20
39.5
 30
12.00000000000001
 11
0.0000000000000017
 21
28.0
 31
12.00000000000001
  0
LINE
  5
B8
330
6C
100
AcDbEntity
  8
Predefinito
 62
     9
420
 11519197
100
AcDbLine
 10
-12.0
 20
39.5
 30
0.0000000000000061
 11
-12.0
 21
28.0
 31
0.0000000000000054
  0
LINE
  5
B9
330
6C
100
AcDbEntity
  8
Predefinito
 62
     9
420
 11519197
100
AcDbLine
 10
0.0000000000000026
 20
28.0
 30
-11.99999999999999
 11
0.0000000000000026
 21
28.0
 31
-7.499999999999986
  0
LINE
  5
BA
330
6C
100
AcDbEntity
  8
Predefinito
 62
     9
420
 11519197
100
AcDbLine
 10
0.0000000000000026
 20
28.0
 30
7.500000000000004
 11
0.0000000000000026
 21
28.0
 31
12.0
  0
LINE
  5
BB
330
6C
100
AcDbEntity
  8
Predefinito
 62
     9
420
 11519197
100
AcDbLine
 10
-12.0
 20
28.0
 30
0.0000000000000036
 11
-7.499999999999997
 21
28.0
 31
0.0000000000000036
  0
LINE
  5
BC
330
6C
100
AcDbEntity
  8
Predefinito
 62
     9
420
 11519197
100
AcDbLine
 10
7.500000000000004
 20
28.0
 30
0.0000000000000036
 11
12.0
 21
28.0
 31
0.0000000000000036
  0
CIRCLE
  5
BD
330
6C
100
AcDbEntity
  8
Predefinito
 62
     9
420
 11519197
100
AcDbCircle
 10
0.0
 20
0.0000000000000037
 30
14.0
 40
7.5
210
6.123031769111886E-17
220
1.0
230
6.123031769111886E-17
  0
LINE
  5
BE
330
6C
100
AcDbEntity
  8
Predefinito
 62
     9
420
 11519197
100
AcDbLine
 10
7.500000000000003
 20
28.0
 30
0.0000000000000054
 11
7.5
 21
0.0000000000000036
 31
0.0000000000000037
  0
LINE
  5
BF
330
6C
100
AcDbEntity
  8
Predefinito
 62
     9
420
 11519197
100
AcDbLine
 10
0.0000000000000017
 20
28.0
 30
7.500000000000006
 11
0.0
 21
0.0000000000000036
 31
7.500000000000003
  0
LINE
  5
C0
330
6C
100
AcDbEntity
  8
Predefinito
 62
     9
420
 11519197
100
AcDbLine
 10
-7.499999999999999
 20
28.0
 30
0.0000000000000054
 11
-7.499999999999999
 21
0.000000000000008
 31
0.0000000000000037
  0
LINE
  5
C1
330
6C
100
AcDbEntity
  8
Predefinito
 62
     9
420
 11519197
100
AcDbLine
 10
15.0
 20
39.5
 30
0.0000000000000061
 11
16.0
 21
38.5
 31
0.000000000000006
  0
LINE
  5
C2
330
6C
100
AcDbEntity
  8
Predefinito
 62
     9
420
 11519197
100
AcDbLine
 10
0.0000000000000024
 20
39.5
 30
15.00000000000001
 11
0.0000000000000024
 21
38.5
 31
16.00000000000001
  0
LINE
  5
C3
330
6C
100
AcDbEntity
  8
Predefinito
 62
     9
420
 11519197
100
AcDbLine
 10
-15.0
 20
39.5
 30
0.0000000000000061
 11
-16.0
 21
38.50000000000001
 31
0.000000000000006
  0
LINE
  5
C4
330
6C
100
AcDbEntity
  8
Predefinito
 62
     9
420
 11519197
100
AcDbLine
 10
9.45
 20
0.0000000000000007
 30
0.0000000000000037
 11
10.45
 21
1.000000000000002
 31
0.0000000000000037
  0
LINE
  5
C5
330
6C
100
AcDbEntity
  8
Predefinito
 62
     9
420
 11519197
100
AcDbLine
 10
0.0
 20
0.0000000000000018
 30
-9.449999999999998
 11
0.0000000000000001
 21
1.000000000000003
 31
-10.45
  0
LINE
  5
C6
330
6C
100
AcDbEntity
  8
Predefinito
 62
     9
420
 11519197
100
AcDbLine
 10
-9.45
 20
0.0000000000000018
 30
0.0000000000000037
 11
-10.45
 21
1.000000000000003
 31
0.0000000000000037
  0
ENDBLK
  5
C8
330
6C
100
AcDbEntity
  8
0
100
AcDbBlockEnd
  0
BLOCK
  5
132
330
CA
100
AcDbEntity
  8
0
100
AcDbBlockBegin
  2
10BO08360YY
 70
     0
 10
0.0
 20
0.0
 30
0.0
  3
10BO08360YY
  1
10BO08360YY
  0
LINE
  5
CB
330
CA
100
AcDbEntity
  8
Predefinito
 62
     9
420
 12566463
100
AcDbLine
 10
-30.0
 20
-35.0
 30
4.0
 11
30.0
 21
-35.0
 31
4.0
  0
LINE
  5
CC
330
CA
100
AcDbEntity
  8
Predefinito
 62
     9
420
 12566463
100
AcDbLine
 10
35.0
 20
-30.0
 30
4.0
 11
35.0
 21
30.0
 31
4.0
  0
LINE
  5
CD
330
CA
100
AcDbEntity
  8
Predefinito
 62
     9
420
 12566463
100
AcDbLine
 10
30.0
 20
35.0
 30
4.0
 11
-30.0
 21
35.0
 31
4.0
  0
LINE
  5
CE
330
CA
100
AcDbEntity
  8
Predefinito
 62
     9
420
 12566463
100
AcDbLine
 10
-35.0
 20
30.0
 30
4.0
 11
-35.0
 21
-30.0
 31
4.0
  0
LINE
  5
CF
330
CA
100
AcDbEntity
  8
Predefinito
 62
     9
420
 12566463
100
AcDbLine
 10
-35.0
 20
30.0
 30
0.0
 11
-35.0
 21
-30.0
 31
0.0
  0
LINE
  5
D0
330
CA
100
AcDbEntity
  8
Predefinito
 62
     9
420
 12566463
100
AcDbLine
 10
30.0
 20
35.0
 30
-0.0000000000000002
 11
-30.0
 21
35.0
 31
-0.0000000000000002
  0
LINE
  5
D1
330
CA
100
AcDbEntity
  8
Predefinito
 62
     9
420
 12566463
100
AcDbLine
 10
35.0
 20
-30.0
 30
0.0
 11
35.0
 21
30.0
 31
0.0
  0
LINE
  5
D2
330
CA
100
AcDbEntity
  8
Predefinito
 62
     9
420
 12566463
100
AcDbLine
 10
-30.0
 20
-35.0
 30
-0.0000000000000002
 11
30.0
 21
-35.0
 31
-0.0000000000000002
  0
ARC
  5
D3
330
CA
100
AcDbEntity
  8
Predefinito
 62
     9
420
 12566463
100
AcDbCircle
 10
-30.0
 20
-30.0
 30
-0.0000000000000012
 40
5.0
100
AcDbArc
 50
180.0
 51
270.0
  0
ARC
  5
D4
330
CA
100
AcDbEntity
  8
Predefinito
 62
     9
420
 12566463
100
AcDbCircle
 10
-30.0
 20
-30.0
 30
4.0
 40
5.0
100
AcDbArc
 50
180.0
 51
270.0
  0
LINE
  5
D5
330
CA
100
AcDbEntity
  8
Predefinito
 62
     9
420
 12566463
100
AcDbLine
 10
-35.0
 20
-30.0
 30
4.0
 11
-35.0
 21
-30.0
 31
0.0
  0
LINE
  5
D6
330
CA
100
AcDbEntity
  8
Predefinito
 62
     9
420
 12566463
100
AcDbLine
 10
30.0
 20
-35.0
 30
4.0
 11
30.0
 21
-35.0
 31
-0.0000000000000002
  0
LINE
  5
D7
330
CA
100
AcDbEntity
  8
Predefinito
 62
     9
420
 12566463
100
AcDbLine
 10
-30.0
 20
-35.0
 30
-0.0000000000000002
 11
-30.0
 21
-35.0
 31
4.0
  0
ARC
  5
D8
330
CA
100
AcDbEntity
  8
Predefinito
 62
     9
420
 12566463
100
AcDbCircle
 10
30.0
 20
-30.0
 30
-0.0000000000000012
 40
5.0
100
AcDbArc
 50
270.0
 51
0.0
  0
LINE
  5
D9
330
CA
100
AcDbEntity
  8
Predefinito
 62
     9
420
 12566463
100
AcDbLine
 10
35.0
 20
-30.0
 30
0.0
 11
35.0
 21
-30.0
 31
4.0
  0
ARC
  5
DA
330
CA
100
AcDbEntity
  8
Predefinito
 62
     9
420
 12566463
100
AcDbCircle
 10
30.0
 20
-30.0
 30
4.0
 40
5.0
100
AcDbArc
 50
270.0
 51
0.0
  0
LINE
  5
DB
330
CA
100
AcDbEntity
  8
Predefinito
 62
     9
420
 12566463
100
AcDbLine
 10
35.0
 20
30.0
 30
4.0
 11
35.0
 21
30.0
 31
0.0
  0
ARC
  5
DC
330
CA
100
AcDbEntity
  8
Predefinito
 62
     9
420
 12566463
100
AcDbCircle
 10
30.0
 20
30.0
 30
-0.0000000000000012
 40
5.0
100
AcDbArc
 50
0.0
 51
90.0
  0
ARC
  5
DD
330
CA
100
AcDbEntity
  8
Predefinito
 62
     9
420
 12566463
100
AcDbCircle
 10
30.0
 20
30.0
 30
4.0
 40
5.0
100
AcDbArc
 50
0.0
 51
90.0
  0
LINE
  5
DE
330
CA
100
AcDbEntity
  8
Predefinito
 62
     9
420
 12566463
100
AcDbLine
 10
-30.0
 20
35.0
 30
4.0
 11
-30.0
 21
35.0
 31
-0.0000000000000002
  0
LINE
  5
DF
330
CA
100
AcDbEntity
  8
Predefinito
 62
     9
420
 12566463
100
AcDbLine
 10
30.0
 20
35.0
 30
-0.0000000000000002
 11
30.0
 21
35.0
 31
4.0
  0
ARC
  5
E0
330
CA
100
AcDbEntity
  8
Predefinito
 62
     9
420
 12566463
100
AcDbCircle
 10
-30.0
 20
30.0
 30
-0.0000000000000012
 40
5.0
100
AcDbArc
 50
90.0
 51
180.0
  0
LINE
  5
E1
330
CA
100
AcDbEntity
  8
Predefinito
 62
     9
420
 12566463
100
AcDbLine
 10
-35.0
 20
30.0
 30
0.0
 11
-35.0
 21
30.0
 31
4.0
  0
ARC
  5
E2
330
CA
100
AcDbEntity
  8
Predefinito
 62
     9
420
 12566463
100
AcDbCircle
 10
-30.0
 20
30.0
 30
4.0
 40
5.0
100
AcDbArc
 50
90.0
 51
180.0
  0
ARC
  5
E3
330
CA
100
AcDbEntity
  8
Predefinito
 62
     9
420
 12566463
100
AcDbCircle
 10
0.0000000000000036
 20
0.0
 30
0.5000000000000011
 40
10.6
100
AcDbArc
 50
180.0
 51
0.0
  0
ARC
  5
E4
330
CA
100
AcDbEntity
  8
Predefinito
 62
     9
420
 12566463
100
AcDbCircle
 10
0.0000000000000036
 20
0.0
 30
0.5000000000000011
 40
10.6
100
AcDbArc
 50
0.0
 51
180.0
  0
ARC
  5
E5
330
CA
100
AcDbEntity
  8
Predefinito
 62
     9
420
 12566463
100
AcDbCircle
 10
0.0000000000000027
 20
0.0
 30
4.0
 40
10.6
100
AcDbArc
 50
0.000000000000007
 51
180.0
  0
ARC
  5
E6
330
CA
100
AcDbEntity
  8
Predefinito
 62
     9
420
 12566463
100
AcDbCircle
 10
0.0000000000000027
 20
0.0
 30
4.0
 40
10.6
100
AcDbArc
 50
180.0
 51
0.0
  0
LINE
  5
E7
330
CA
100
AcDbEntity
  8
Predefinito
 62
     9
420
 12566463
100
AcDbLine
 10
-10.6
 20
-0.0000000000000005
 30
4.0
 11
-10.59999999999999
 21
0.0
 31
0.5000000000000007
  0
ARC
  5
E8
330
CA
100
AcDbEntity
  8
Predefinito
 62
     9
420
 12566463
100
AcDbCircle
 10
0.0000000000000041
 20
14.0
 30
0.4999999999999996
 40
1.6
100
AcDbArc
 50
180.0
 51
0.0
  0
ARC
  5
E9
330
CA
100
AcDbEntity
  8
Predefinito
 62
     9
420
 12566463
100
AcDbCircle
 10
0.0000000000000041
 20
14.0
 30
0.4999999999999996
 40
1.6
100
AcDbArc
 50
0.0
 51
180.0
  0
LINE
  5
EA
330
CA
100
AcDbEntity
  8
Predefinito
 62
     9
420
 12566463
100
AcDbLine
 10
-1.37309933280238
 20
13.17866071428571
 30
4.0
 11
-1.37309933280238
 21
13.17866071428571
 31
1.8
  0
ARC
  5
EB
330
CA
100
AcDbEntity
  8
Predefinito
 62
     9
420
 12566463
100
AcDbCircle
 10
0.0000000000000007
 20
14.0
 30
4.0
 40
1.600000000000003
100
AcDbArc
 50
210.8863659748165
 51
329.1136340251835
  0
LINE
  5
EC
330
CA
100
AcDbEntity
  8
Predefinito
 62
     9
420
 12566463
100
AcDbLine
 10
1.373099332802381
 20
13.17866071428571
 30
1.8
 11
1.373099332802381
 21
13.17866071428571
 31
4.0
  0
ARC
  5
ED
330
CA
100
AcDbEntity
  8
Predefinito
 62
     9
420
 12566463
100
AcDbCircle
 10
0.0000000000000048
 20
14.0
 30
1.8
 40
1.600000000000001
100
AcDbArc
 50
329.1136340251833
 51
180.0000000000001
  0
ARC
  5
EE
330
CA
100
AcDbEntity
  8
Predefinito
 62
     9
420
 12566463
100
AcDbCircle
 10
0.0000000000000393
 20
14.0
 30
1.8
 40
1.600000000000035
100
AcDbArc
 50
179.9999999999999
 51
210.8863659748157
  0
LINE
  5
EF
330
CA
100
AcDbEntity
  8
Predefinito
 62
     9
420
 12566463
100
AcDbLine
 10
-1.599999999999996
 20
14.0
 30
1.8
 11
-1.599999999999996
 21
14.0
 31
0.4999999999999989
  0
ARC
  5
F0
330
CA
100
AcDbEntity
  8
Predefinito
 62
     9
420
 12566463
100
AcDbCircle
 10
-0.0000000000000019
 20
0.0000000000018048
 30
1.8
 40
13.2499999999982
100
AcDbArc
 50
95.94824870915913
 51
84.05175129084087
  0
ARC
  5
F1
330
CA
100
AcDbEntity
  8
Predefinito
 62
     9
420
 12566463
100
AcDbCircle
 10
-0.000000000000002
 20
0.0000000000018048
 30
4.000000000000036
 40
13.2499999999982
100
AcDbArc
 50
95.94824870915913
 51
84.05175129084087
  0
ARC
  5
F2
330
CA
100
AcDbEntity
  8
Predefinito
 62
     9
420
 12566463
100
AcDbCircle
 10
0.0000000000000036
 20
0.0
 30
1.8
 40
19.25
100
AcDbArc
 50
0.0
 51
90.00000000000001
  0
ARC
  5
F3
330
CA
100
AcDbEntity
  8
Predefinito
 62
     9
420
 12566463
100
AcDbCircle
 10
0.0000000000000053
 20
-0.0000000000000018
 30
1.8
 40
19.25
100
AcDbArc
 50
270.0
 51
0.0000000000000092
  0
ARC
  5
F4
330
CA
100
AcDbEntity
  8
Predefinito
 62
     9
420
 12566463
100
AcDbCircle
 10
0.0000000000000089
 20
-0.0000000000000018
 30
4.0
 40
19.25
100
AcDbArc
 50
270.0
 51
0.0
  0
ARC
  5
F5
330
CA
100
AcDbEntity
  8
Predefinito
 62
     9
420
 12566463
100
AcDbCircle
 10
0.0000000000000053
 20
0.0
 30
4.0
 40
19.25
100
AcDbArc
 50
90.00000000000001
 51
270.0
  0
LINE
  5
F6
330
CA
100
AcDbEntity
  8
Predefinito
 62
     9
420
 12566463
100
AcDbLine
 10
19.25
 20
0.0
 30
1.8
 11
19.25
 21
0.0
 31
4.0
  0
ARC
  5
F7
330
CA
100
AcDbEntity
  8
Predefinito
 62
     9
420
 12566463
100
AcDbCircle
 10
0.0000000000000053
 20
0.0
 30
1.8
 40
19.25
100
AcDbArc
 50
90.00000000000001
 51
270.0
  0
ARC
  5
F8
330
CA
100
AcDbEntity
  8
Predefinito
 62
     9
420
 12566463
100
AcDbCircle
 10
0.0000000000000036
 20
0.0
 30
4.0
 40
19.25
100
AcDbArc
 50
0.0
 51
90.00000000000001
  0
ARC
  5
F9
330
CA
100
AcDbEntity
  8
Predefinito
 62
     9
420
 12566463
100
AcDbCircle
 10
0.0000000000000038
 20
14.0
 30
-0.0000000000000001
 40
2.100000000000001
100
AcDbArc
 50
180.0
 51
0.0
  0
ARC
  5
FA
330
CA
100
AcDbEntity
  8
Predefinito
 62
     9
420
 12566463
100
AcDbCircle
 10
0.0000000000000036
 20
14.0
 30
-0.0000000000000001
 40
2.100000000000001
100
AcDbArc
 50
0.0
 51
180.0
  0
LINE
  5
FB
330
CA
100
AcDbEntity
  8
Predefinito
 62
     9
420
 12566463
100
AcDbLine
 10
-1.599999999999996
 20
14.0
 30
0.4999999999999989
 11
-2.099999999999997
 21
14.0
 31
-0.0000000000000003
  0
ARC
  5
FC
330
CA
100
AcDbEntity
  8
Predefinito
 62
     9
420
 12566463
100
AcDbCircle
 10
0.0000000000000036
 20
0.0
 30
0.0000000000000011
 40
11.1
100
AcDbArc
 50
180.0
 51
0.0
  0
ARC
  5
FD
330
CA
100
AcDbEntity
  8
Predefinito
 62
     9
420
 12566463
100
AcDbCircle
 10
0.0000000000000036
 20
0.0
 30
0.0000000000000011
 40
11.1
100
AcDbArc
 50
0.000000000000007
 51
180.0
  0
LINE
  5
FE
330
CA
100
AcDbEntity
  8
Predefinito
 62
     9
420
 12566463
100
AcDbLine
 10
-10.59999999999999
 20
0.0
 30
0.5000000000000007
 11
-11.09999999999999
 21
0.0000000000000005
 31
0.0000000000000011
  0
LINE
  5
FF
330
CA
100
AcDbEntity
  8
Predefinito
 62
     9
420
 12566463
100
AcDbLine
 10
-35.0
 20
0.0000000000000036
 30
4.0
 11
-19.24999999999999
 21
0.0000000000000036
 31
4.0
  0
LINE
  5
100
330
CA
100
AcDbEntity
  8
Predefinito
 62
     9
420
 12566463
100
AcDbLine
 10
19.25
 20
0.0000000000000036
 30
4.0
 11
35.0
 21
0.0000000000000036
 31
4.0
  0
LINE
  5
101
330
CA
100
AcDbEntity
  8
Predefinito
 62
     9
420
 12566463
100
AcDbLine
 10
0.0000000000000036
 20
-35.0
 30
4.0
 11
0.0000000000000036
 21
-19.25
 31
4.0
  0
LINE
  5
102
330
CA
100
AcDbEntity
  8
Predefinito
 62
     9
420
 12566463
100
AcDbLine
 10
0.0000000000000036
 20
19.25
 30
4.0
 11
0.0000000000000036
 21
35.0
 31
4.0
  0
LINE
  5
103
330
CA
100
AcDbEntity
  8
Predefinito
 62
     9
420
 12566463
100
AcDbLine
 10
-13.24995198770712
 20
-0.0356696428558543
 30
4.0
 11
-10.59993998457437
 21
-0.0356696428558543
 31
4.0
  0
LINE
  5
104
330
CA
100
AcDbEntity
  8
Predefinito
 62
     9
420
 12566463
100
AcDbLine
 10
10.59993998457438
 20
-0.0356696428558543
 30
4.0
 11
13.24995198770713
 21
-0.0356696428558543
 31
4.0
  0
LINE
  5
105
330
CA
100
AcDbEntity
  8
Predefinito
 62
     9
420
 12566463
100
AcDbLine
 10
0.0
 20
-13.24999999999741
 30
4.0
 11
0.0
 21
-10.6
 31
4.0
  0
LINE
  5
106
330
CA
100
AcDbEntity
  8
Predefinito
 62
     9
420
 12566463
100
AcDbLine
 10
0.0
 20
10.6
 30
4.0
 11
0.0
 21
12.39999999999999
 31
4.0
  0
LINE
  5
107
330
CA
100
AcDbEntity
  8
Predefinito
 62
     9
420
 12566463
100
AcDbLine
 10
-35.0
 20
0.0000000000000036
 30
0.0
 11
-11.09999999999999
 21
0.0000000000000036
 31
0.0
  0
LINE
  5
108
330
CA
100
AcDbEntity
  8
Predefinito
 62
     9
420
 12566463
100
AcDbLine
 10
11.1
 20
0.0000000000000036
 30
0.0
 11
35.0
 21
0.0000000000000036
 31
0.0
  0
LINE
  5
109
330
CA
100
AcDbEntity
  8
Predefinito
 62
     9
420
 12566463
100
AcDbLine
 10
0.0000000000000036
 20
-35.00000000000001
 30
0.0
 11
0.0000000000000036
 21
-11.1
 31
0.0
  0
LINE
  5
10A
330
CA
100
AcDbEntity
  8
Predefinito
 62
     9
420
 12566463
100
AcDbLine
 10
0.0000000000000036
 20
11.1
 30
0.0
 11
0.0000000000000036
 21
11.9
 31
0.0
  0
LINE
  5
10B
330
CA
100
AcDbEntity
  8
Predefinito
 62
     9
420
 12566463
100
AcDbLine
 10
0.0000000000000036
 20
16.1
 30
0.0
 11
0.0000000000000036
 21
35.0
 31
0.0
  0
ARC
  5
10C
330
CA
100
AcDbEntity
  8
Predefinito
 62
     9
420
 12566463
100
AcDbCircle
 10
-30.0
 20
-30.0
 30
2.0
 40
5.0
100
AcDbArc
 50
180.0
 51
270.0
  0
LINE
  5
10D
330
CA
100
AcDbEntity
  8
Predefinito
 62
     9
420
 12566463
100
AcDbLine
 10
0.0
 20
-35.0
 30
0.0000000000000001
 11
0.0
 21
-35.0
 31
4.0
  0
LINE
  5
10E
330
CA
100
AcDbEntity
  8
Predefinito
 62
     9
420
 12566463
100
AcDbLine
 10
-30.0
 20
-35.0
 30
2.0
 11
30.0
 21
-35.0
 31
2.0
  0
ARC
  5
10F
330
CA
100
AcDbEntity
  8
Predefinito
 62
     9
420
 12566463
100
AcDbCircle
 10
30.0
 20
-30.0
 30
2.0
 40
5.0
100
AcDbArc
 50
270.0
 51
0.0
  0
LINE
  5
110
330
CA
100
AcDbEntity
  8
Predefinito
 62
     9
420
 12566463
100
AcDbLine
 10
35.0
 20
0.0
 30
0.0000000000000001
 11
35.0
 21
0.0
 31
4.0
  0
LINE
  5
111
330
CA
100
AcDbEntity
  8
Predefinito
 62
     9
420
 12566463
100
AcDbLine
 10
35.0
 20
-30.0
 30
2.0
 11
35.0
 21
30.0
 31
2.0
  0
ARC
  5
112
330
CA
100
AcDbEntity
  8
Predefinito
 62
     9
420
 12566463
100
AcDbCircle
 10
30.0
 20
30.0
 30
2.0
 40
5.0
100
AcDbArc
 50
0.0
 51
90.0
  0
LINE
  5
113
330
CA
100
AcDbEntity
  8
Predefinito
 62
     9
420
 12566463
100
AcDbLine
 10
0.0
 20
35.0
 30
4.0
 11
0.0
 21
35.0
 31
0.0000000000000001
  0
LINE
  5
114
330
CA
100
AcDbEntity
  8
Predefinito
 62
     9
420
 12566463
100
AcDbLine
 10
-30.0
 20
35.0
 30
2.0
 11
30.0
 21
35.0
 31
2.0
  0
ARC
  5
115
330
CA
100
AcDbEntity
  8
Predefinito
 62
     9
420
 12566463
100
AcDbCircle
 10
-30.0
 20
30.0
 30
2.0
 40
5.0
100
AcDbArc
 50
90.0
 51
180.0
  0
LINE
  5
116
330
CA
100
AcDbEntity
  8
Predefinito
 62
     9
420
 12566463
100
AcDbLine
 10
-35.0
 20
0.0
 30
4.0
 11
-35.0
 21
0.0
 31
0.0000000000000001
  0
LINE
  5
117
330
CA
100
AcDbEntity
  8
Predefinito
 62
     9
420
 12566463
100
AcDbLine
 10
-35.0
 20
-30.0
 30
2.0
 11
-35.0
 21
30.0
 31
2.0
  0
CIRCLE
  5
118
330
CA
100
AcDbEntity
  8
Predefinito
 62
     9
420
 12566463
100
AcDbCircle
 10
0.0000000000000033
 20
0.0
 30
2.25
 40
10.6
  0
LINE
  5
119
330
CA
100
AcDbEntity
  8
Predefinito
 62
     9
420
 12566463
100
AcDbLine
 10
0.0000000000000033
 20
10.6
 30
4.0
 11
0.0000000000000033
 21
10.6
 31
0.4999999999999999
  0
LINE
  5
11A
330
CA
100
AcDbEntity
  8
Predefinito
 62
     9
420
 12566463
100
AcDbLine
 10
10.6
 20
0.0
 30
4.0
 11
10.6
 21
0.0
 31
0.5000000000000004
  0
LINE
  5
11B
330
CA
100
AcDbEntity
  8
Predefinito
 62
     9
420
 12566463
100
AcDbLine
 10
0.0000000000000033
 20
-10.6
 30
4.0
 11
0.0000000000000033
 21
-10.6
 31
0.5000000000000004
  0
ARC
  5
11C
330
CA
100
AcDbEntity
  8
Predefinito
 62
     9
420
 12566463
100
AcDbCircle
 10
0.0000000000000042
 20
14.0
 30
2.25
 40
1.6
100
AcDbArc
 50
210.8863659748166
 51
329.1136340251834
  0
LINE
  5
11D
330
CA
100
AcDbEntity
  8
Predefinito
 62
     9
420
 12566463
100
AcDbLine
 10
0.0000000000000036
 20
15.6
 30
1.8
 11
0.0000000000000036
 21
15.6
 31
0.4999999999999991
  0
LINE
  5
11E
330
CA
100
AcDbEntity
  8
Predefinito
 62
     9
420
 12566463
100
AcDbLine
 10
1.600000000000004
 20
14.0
 30
1.8
 11
1.600000000000004
 21
14.0
 31
0.4999999999999996
  0
LINE
  5
11F
330
CA
100
AcDbEntity
  8
Predefinito
 62
     9
420
 12566463
100
AcDbLine
 10
0.0000000000000036
 20
12.4
 30
4.0
 11
0.0000000000000036
 21
12.4
 31
0.4999999999999996
  0
ARC
  5
120
330
CA
100
AcDbEntity
  8
Predefinito
 62
     9
420
 12566463
100
AcDbCircle
 10
0.0000000000000026
 20
0.0
 30
2.9
 40
13.25
100
AcDbArc
 50
95.94824870915832
 51
84.05175129084171
  0
LINE
  5
121
330
CA
100
AcDbEntity
  8
Predefinito
 62
     9
420
 12566463
100
AcDbLine
 10
-13.25
 20
0.0
 30
1.8
 11
-13.25
 21
0.0
 31
4.0
  0
LINE
  5
122
330
CA
100
AcDbEntity
  8
Predefinito
 62
     9
420
 12566463
100
AcDbLine
 10
0.0000000000000026
 20
-13.25
 30
1.8
 11
0.0000000000000026
 21
-13.25
 31
4.0
  0
LINE
  5
123
330
CA
100
AcDbEntity
  8
Predefinito
 62
     9
420
 12566463
100
AcDbLine
 10
13.25
 20
0.0
 30
1.8
 11
13.25
 21
0.0
 31
4.0
  0
CIRCLE
  5
124
330
CA
100
AcDbEntity
  8
Predefinito
 62
     9
420
 12566463
100
AcDbCircle
 10
0.0000000000000026
 20
0.0
 30
2.9
 40
19.25
  0
LINE
  5
125
330
CA
100
AcDbEntity
  8
Predefinito
 62
     9
420
 12566463
100
AcDbLine
 10
0.0000000000000026
 20
19.25
 30
1.8
 11
0.0000000000000026
 21
19.25
 31
4.0
  0
LINE
  5
126
330
CA
100
AcDbEntity
  8
Predefinito
 62
     9
420
 12566463
100
AcDbLine
 10
-19.25
 20
0.0
 30
1.8
 11
-19.25
 21
0.0
 31
4.0
  0
LINE
  5
127
330
CA
100
AcDbEntity
  8
Predefinito
 62
     9
420
 12566463
100
AcDbLine
 10
0.0000000000000026
 20
-19.25
 30
1.8
 11
0.0000000000000026
 21
-19.25
 31
4.0
  0
LINE
  5
128
330
CA
100
AcDbEntity
  8
Predefinito
 62
     9
420
 12566463
100
AcDbLine
 10
19.25
 20
0.0
 30
1.8
 11
13.2499999999987
 21
0.0
 31
1.8
  0
LINE
  5
129
330
CA
100
AcDbEntity
  8
Predefinito
 62
     9
420
 12566463
100
AcDbLine
 10
-13.2499999999987
 20
0.0
 30
1.8
 11
-19.24999999999999
 21
0.0
 31
1.8
  0
LINE
  5
12A
330
CA
100
AcDbEntity
  8
Predefinito
 62
     9
420
 12566463
100
AcDbLine
 10
0.0000000000000026
 20
-19.25
 30
1.8
 11
0.0000000000000026
 21
-13.24999999999741
 31
1.8
  0
LINE
  5
12B
330
CA
100
AcDbEntity
  8
Predefinito
 62
     9
420
 12566463
100
AcDbLine
 10
0.0000000000000026
 20
15.60000000000001
 30
1.8
 11
0.0000000000000026
 21
19.25
 31
1.8
  0
LINE
  5
12C
330
CA
100
AcDbEntity
  8
Predefinito
 62
     9
420
 12566463
100
AcDbLine
 10
0.0000000000000036
 20
15.6
 30
0.4999999999999994
 11
0.0000000000000036
 21
16.1
 31
0.0000000000000001
  0
LINE
  5
12D
330
CA
100
AcDbEntity
  8
Predefinito
 62
     9
420
 12566463
100
AcDbLine
 10
1.600000000000004
 20
14.0
 30
0.4999999999999994
 11
2.100000000000004
 21
14.0
 31
0.0000000000000003
  0
LINE
  5
12E
330
CA
100
AcDbEntity
  8
Predefinito
 62
     9
420
 12566463
100
AcDbLine
 10
0.0000000000000036
 20
12.4
 30
0.4999999999999994
 11
0.0000000000000036
 21
11.9
 31
0.0000000000000001
  0
LINE
  5
12F
330
CA
100
AcDbEntity
  8
Predefinito
 62
     9
420
 12566463
100
AcDbLine
 10
0.0000000000000033
 20
10.6
 30
0.5000000000000007
 11
0.0000000000000033
 21
11.1
 31
0.0000000000000016
  0
LINE
  5
130
330
CA
100
AcDbEntity
  8
Predefinito
 62
     9
420
 12566463
100
AcDbLine
 10
10.6
 20
0.0
 30
0.5000000000000007
 11
11.1
 21
0.0
 31
0.0000000000000016
  0
LINE
  5
131
330
CA
100
AcDbEntity
  8
Predefinito
 62
     9
420
 12566463
100
AcDbLine
 10
0.0000000000000033
 20
-10.6
 30
0.5000000000000007
 11
0.0000000000000033
 21
-11.1
 31
0.0000000000000016
  0
ENDBLK
  5
133
330
CA
100
AcDbEntity
  8
0
100
AcDbBlockEnd
  0
BLOCK
  5
150
330
135
100
AcDbEntity
  8
0
100
AcDbBlockBegin
  2
10GG0776000
 70
     0
 10
0.0
 20
0.0
 30
0.0
  3
10GG0776000
  1
10GG0776000
  0
ARC
  5
136
330
135
100
AcDbEntity
  8
Predefinito
 62
   250
420
  3355443
100
AcDbCircle
 10
0.0
 20
0.0
 30
2.8
 40
13.5
100
AcDbArc
 50
0.000000000000007
 51
180.0
  0
ARC
  5
137
330
135
100
AcDbEntity
  8
Predefinito
 62
   250
420
  3355443
100
AcDbCircle
 10
0.0
 20
0.0
 30
2.8
 40
13.5
100
AcDbArc
 50
180.0
 51
0.0
  0
ARC
  5
138
330
135
100
AcDbEntity
  8
Predefinito
 62
   250
420
  3355443
100
AcDbCircle
 10
0.0
 20
0.0
 30
0.0
 40
13.5
100
AcDbArc
 50
180.0
 51
0.0
  0
ARC
  5
139
330
135
100
AcDbEntity
  8
Predefinito
 62
   250
420
  3355443
100
AcDbCircle
 10
0.0
 20
0.0
 30
0.0
 40
13.5
100
AcDbArc
 50
0.0
 51
180.0
  0
LINE
  5
13A
330
135
100
AcDbEntity
  8
Predefinito
 62
   250
420
  3355443
100
AcDbLine
 10
-13.5
 20
-0.0000000000000007
 30
2.8
 11
-13.5
 21
-0.0000000000000007
 31
0.0000000000000003
  0
ARC
  5
13B
330
135
100
AcDbEntity
  8
Predefinito
 62
   250
420
  3355443
100
AcDbCircle
 10
0.0000000000000036
 20
0.0
 30
2.8
 40
18.0
100
AcDbArc
 50
180.0
 51
0.0
  0
ARC
  5
13C
330
135
100
AcDbEntity
  8
Predefinito
 62
   250
420
  3355443
100
AcDbCircle
 10
0.0000000000000036
 20
0.0
 30
2.8
 40
18.0
100
AcDbArc
 50
0.000000000000007
 51
180.0
  0
ARC
  5
13D
330
135
100
AcDbEntity
  8
Predefinito
 62
   250
420
  3355443
100
AcDbCircle
 10
0.0000000000000036
 20
0.0
 30
0.0
 40
18.0
100
AcDbArc
 50
0.0
 51
180.0
  0
ARC
  5
13E
330
135
100
AcDbEntity
  8
Predefinito
 62
   250
420
  3355443
100
AcDbCircle
 10
0.0000000000000036
 20
0.0
 30
0.0
 40
18.0
100
AcDbArc
 50
180.0
 51
0.0
  0
LINE
  5
13F
330
135
100
AcDbEntity
  8
Predefinito
 62
   250
420
  3355443
100
AcDbLine
 10
-18.0
 20
-0.0000000000000009
 30
2.8
 11
-18.0
 21
-0.0000000000000009
 31
0.0000000000000003
  0
CIRCLE
  5
140
330
135
100
AcDbEntity
  8
Predefinito
 62
   250
420
  3355443
100
AcDbCircle
 10
0.0
 20
0.0
 30
1.4
 40
13.5
  0
LINE
  5
141
330
135
100
AcDbEntity
  8
Predefinito
 62
   250
420
  3355443
100
AcDbLine
 10
0.0
 20
13.5
 30
2.8
 11
0.0
 21
13.5
 31
0.0000000000000002
  0
LINE
  5
142
330
135
100
AcDbEntity
  8
Predefinito
 62
   250
420
  3355443
100
AcDbLine
 10
13.5
 20
0.0
 30
2.8
 11
13.5
 21
0.0
 31
0.0000000000000002
  0
LINE
  5
143
330
135
100
AcDbEntity
  8
Predefinito
 62
   250
420
  3355443
100
AcDbLine
 10
0.0
 20
-13.5
 30
2.8
 11
0.0
 21
-13.5
 31
0.0000000000000009
  0
CIRCLE
  5
144
330
135
100
AcDbEntity
  8
Predefinito
 62
   250
420
  3355443
100
AcDbCircle
 10
0.0000000000000033
 20
0.0
 30
1.4
 40
18.0
  0
LINE
  5
145
330
135
100
AcDbEntity
  8
Predefinito
 62
   250
420
  3355443
100
AcDbLine
 10
0.0000000000000033
 20
18.0
 30
2.8
 11
0.0000000000000033
 21
18.0
 31
0.0000000000000009
  0
LINE
  5
146
330
135
100
AcDbEntity
  8
Predefinito
 62
   250
420
  3355443
100
AcDbLine
 10
18.0
 20
0.0
 30
2.8
 11
18.0
 21
0.0
 31
0.0000000000000002
  0
LINE
  5
147
330
135
100
AcDbEntity
  8
Predefinito
 62
   250
420
  3355443
100
AcDbLine
 10
0.0000000000000033
 20
-18.0
 30
2.8
 11
0.0000000000000033
 21
-18.0
 31
0.0000000000000002
  0
LINE
  5
148
330
135
100
AcDbEntity
  8
Predefinito
 62
   250
420
  3355443
100
AcDbLine
 10
18.0
 20
0.0
 30
2.8
 11
13.5
 21
0.0
 31
2.8
  0
LINE
  5
149
330
135
100
AcDbEntity
  8
Predefinito
 62
   250
420
  3355443
100
AcDbLine
 10
-13.5
 20
0.0
 30
2.8
 11
-18.0
 21
0.0
 31
2.8
  0
LINE
  5
14A
330
135
100
AcDbEntity
  8
Predefinito
 62
   250
420
  3355443
100
AcDbLine
 10
0.0000000000000033
 20
-18.0
 30
2.8
 11
0.0000000000000033
 21
-13.5
 31
2.8
  0
LINE
  5
14B
330
135
100
AcDbEntity
  8
Predefinito
 62
   250
420
  3355443
100
AcDbLine
 10
0.0000000000000033
 20
13.5
 30
2.8
 11
0.0000000000000033
 21
18.0
 31
2.8
  0
LINE
  5
14C
330
135
100
AcDbEntity
  8
Predefinito
 62
   250
420
  3355443
100
AcDbLine
 10
18.0
 20
0.0
 30
0.0
 11
13.5
 21
0.0
 31
0.0
  0
LINE
  5
14D
330
135
100
AcDbEntity
  8
Predefinito
 62
   250
420
  3355443
100
AcDbLine
 10
-13.5
 20
0.0
 30
0.0
 11
-18.0
 21
0.0
 31
0.0
  0
LINE
  5
14E
330
135
100
AcDbEntity
  8
Predefinito
 62
   250
420
  3355443
100
AcDbLine
 10
0.0000000000000033
 20
-18.0
 30
0.0
 11
0.0000000000000033
 21
-13.5
 31
0.0
  0
LINE
  5
14F
330
135
100
AcDbEntity
  8
Predefinito
 62
   250
420
  3355443
100
AcDbLine
 10
0.0000000000000033
 20
13.5
 30
0.0
 11
0.0000000000000033
 21
18.0
 31
0.0
  0
ENDBLK
  5
151
330
135
100
AcDbEntity
  8
0
100
AcDbBlockEnd
  0
BLOCK
  5
1F2
330
153
100
AcDbEntity
  8
0
100
AcDbBlockBegin
  2
10BR07660YY
 70
     0
 10
0.0
 20
0.0
 30
0.0
  3
10BR07660YY
  1
10BR07660YY
  0
INSERT
  5
19F
330
153
100
AcDbEntity
  8
Predefinito
100
AcDbBlockReference
  2
10ST02960YY
 10
0.0
 20
0.0
 30
0.0
  0
INSERT
  5
1E0
330
153
100
AcDbEntity
  8
Predefinito
100
AcDbBlockReference
  2
10ST03060YY
 10
395.0
 20
0.0
 30
-137.088723439379
 50
360.0
  0
INSERT
  5
1F1
330
153
100
AcDbEntity
  8
Predefinito
100
AcDbBlockReference
  2
10TP01960YY
 10
0.0000000000000251
 20
0.0000000000000251
 30
452.5
 50
270.0
210
1.0
220
-5.551115123125790E-17
230
-5.551115123125780E-17
  0
ENDBLK
  5
1F3
330
153
100
AcDbEntity
  8
0
100
AcDbBlockEnd
  0
BLOCK
  5
19D
330
154
100
AcDbEntity
  8
0
100
AcDbBlockBegin
  2
10ST02960YY
 70
     0
 10
0.0
 20
0.0
 30
0.0
  3
10ST02960YY
  1
10ST02960YY
  0
SPLINE
  5
155
330
154
100
AcDbEntity
  8
Predefinito
 62
     9
420
 12566463
100
AcDbSpline
 70
     0
 71
     3
 72
    50
 73
    46
 74
     0
 42
0.000000001
 43
0.0000000001
 40
0.0324083035492939
 40
0.0324083035492939
 40
0.0324083035492939
 40
0.0324083035492939
 40
0.0325349419493367
 40
0.0325349419493367
 40
0.0326615803493795
 40
0.0326615803493795
 40
0.0329148571494652
 40
0.0329148571494652
 40
0.0334214107496365
 40
0.0334214107496365
 40
0.0344345179499791
 40
0.0344345179499791
 40
0.0354476251503218
 40
0.0354476251503218
 40
0.0364607323506644
 40
0.0364607323506644
 40
0.0384858052217579
 40
0.0384858052217579
 40
0.0405108780928514
 40
0.0405108780928514
 40
0.0445613615722793
 40
0.0445613615722793
 40
0.0486125423560539
 40
0.0486125423560539
 40
0.0526635068584983
 40
0.0526635068584983
 40
0.0567141808059084
 40
0.0567141808059084
 40
0.0587392392909477
 40
0.0587392392909477
 40
0.0607642977759871
 40
0.0607642977759871
 40
0.0617773751066372
 40
0.0617773751066372
 40
0.0627904524372874
 40
0.0627904524372874
 40
0.0638035297679375
 40
0.0638035297679375
 40
0.0643100684332626
 40
0.0643100684332626
 40
0.0645633377659252
 40
0.0645633377659252
 40
0.0646899724322564
 40
0.0646899724322564
 40
0.0648166070985877
 40
0.0648166070985877
 40
0.0648166070985877
 40
0.0648166070985877
 10
385.0000287701235
 20
0.0239875310395961
 30
-14.49998015855037
 10
384.9989010381277
 20
-0.3848324915360823
 30
-14.50065647554349
 10
385.0192438889165
 20
-0.6594164047313288
 30
-14.48677101498028
 10
385.0608264179276
 20
-1.111844606131736
 30
-14.45908593262788
 10
385.0842668789335
 20
-1.294666882893862
 30
-14.44298425581299
 10
385.1558974485428
 20
-1.775558606209869
 30
-14.39448567477179
 10
385.2059548499979
 20
-2.020031135593019
 30
-14.36033322027993
 10
385.3567454069371
 20
-2.6807786567658
 30
-14.25700563717332
 10
385.4593964046917
 20
-3.00719741467201
 30
-14.18800552543817
 10
385.7684478343632
 20
-3.896751276034792
 30
-13.97985256772826
 10
385.9765326418803
 20
-4.334352911900289
 30
-13.84313797583197
 10
386.3934166740813
 20
-5.111897865301491
 30
-13.57525632898126
 10
386.6023603500082
 20
-5.44206131990878
 30
-13.4439417488207
 10
387.0206704344714
 20
-6.038886274272113
 30
-13.18663921254158
 10
387.2299892064692
 20
-6.30415818527609
 30
-13.06066211210938
 10
387.8581566275216
 20
-7.028659907587009
 30
-12.69412582785284
 10
388.277468959695
 20
-7.42427364188649
 30
-12.46168487362372
 10
389.1164010815884
 20
-8.107070614957657
 30
-12.02866721807545
 10
389.5361825410669
 20
-8.39226476107206
 30
-11.82847062633539
 10
390.7958938494611
 20
-9.126481090926362
 30
-11.28400219498
 10
391.6363768524915
 20
-9.457051160718592
 30
-10.99550482489377
 10
393.3172534807418
 20
-9.896278444797492
 30
-10.6019170856684
 10
394.157875355657
 20
-10.0000296104073
 30
-10.49997179961594
 10
395.8400143844095
 20
-9.999968977789624
 30
-10.50002954495831
 10
396.6805871778046
 20
-9.896645717636316
 30
-10.60156309598855
 10
398.3614601363603
 20
-9.458018464821802
 30
-10.99466283320376
 10
399.2019846669468
 20
-9.12730903704993
 30
-11.28334570722966
 10
400.4617339681311
 20
-8.392841953605295
 30
-11.82806381210032
 10
400.8815129876028
 20
-8.107637484919259
 30
-12.02827131556164
 10
401.7204461975535
 20
-7.425568484398995
 30
-12.46090001208305
 10
402.1397607663952
 20
-7.030867242434453
 30
-12.69284725102503
 10
402.7679334467293
 20
-6.308233148300994
 30
-13.05868063143013
 10
402.9772516775964
 20
-6.043616230157475
 30
-13.18445934749037
 10
403.3955603433782
 20
-5.447842206789799
 30
-13.44158773036015
 10
403.6045033574144
 20
-5.117965416678367
 30
-13.57297713676309
 10
404.0213634103494
 20
-4.340089595699273
 30
-13.84134750169622
 10
404.2294247227476
 20
-3.901492691622067
 30
-13.97857767749226
 10
404.5384598078707
 20
-3.010399515728129
 30
-14.18733817644522
 10
404.6410744468108
 20
-2.683308005666446
 30
-14.25651266067177
 10
404.7919139221046
 20
-2.023395684560289
 30
-14.35985528053798
 10
404.8420028905347
 20
-1.779098958600752
 30
-14.39398990704838
 10
404.9136745411857
 20
-1.302152224153128
 30
-14.44229670870631
 10
404.9371828539579
 20
-1.120729434739456
 30
-14.45835063217912
 10
404.9790598061169
 20
-0.674652903965733
 30
-14.48602018941353
 10
404.9998145313596
 20
-0.4093116027643939
 30
-14.49999999999999
 10
405.0000000000001
 20
0.0000000000000011
 30
-14.49999999999999
  0
SPLINE
  5
156
330
154
100
AcDbEntity
  8
Predefinito
 62
     9
420
 12566463
100
AcDbSpline
 70
     0
 71
     3
 72
    50
 73
    46
 74
     0
 42
0.000000001
 43
0.0000000001
 40
0.0
 40
0.0
 40
0.0
 40
0.0
 40
0.0001266411348569
 40
0.0001266411348569
 40
0.0002532822697139
 40
0.0002532822697139
 40
0.0005065645394277
 40
0.0005065645394277
 40
0.0010131290788555
 40
0.0010131290788555
 40
0.0020262581577109
 40
0.0020262581577109
 40
0.0030393872365663
 40
0.0030393872365663
 40
0.0040525163154218
 40
0.0040525163154218
 40
0.0060776829697604
 40
0.0060776829697604
 40
0.0081028496240991
 40
0.0081028496240991
 40
0.012153528366522
 40
0.012153528366522
 40
0.0162048959159082
 40
0.0162048959159082
 40
0.0202552245897868
 40
0.0202552245897868
 40
0.0243055485287324
 40
0.0243055485287324
 40
0.026330719481548
 40
0.026330719481548
 40
0.0283558904343636
 40
0.0283558904343636
 40
0.0293689937130961
 40
0.0293689937130961
 40
0.0303820969918287
 40
0.0303820969918287
 40
0.0313952002705613
 40
0.0313952002705613
 40
0.0319017519099276
 40
0.0319017519099276
 40
0.0321550277296107
 40
0.0321550277296107
 40
0.0322816656394523
 40
0.0322816656394523
 40
0.0324083035492939
 40
0.0324083035492939
 40
0.0324083035492939
 40
0.0324083035492939
 10
405.0000000000001
 20
0.0000000000000011
 30
-14.49999999999999
 10
405.0001854534954
 20
0.4092781786776594
 30
-14.49999999999999
 10
404.9795146523757
 20
0.6767718901827652
 30
-14.48592889799122
 10
404.9376938452942
 20
1.123819414815534
 30
-14.45811834755416
 10
404.9141945140546
 20
1.305262458840439
 30
-14.44201588068511
 10
404.8425162597524
 20
1.782181495077948
 30
-14.39360831259066
 10
404.792431078244
 20
2.025922343433472
 30
-14.35949202044926
 10
404.6415983609158
 20
2.6844782191237
 30
-14.25626411087163
 10
404.5389803198528
 20
3.010690237473479
 30
-14.1872632358546
 10
404.2299719272517
 20
3.899986392814178
 30
-13.97894421813261
 10
404.0219422873956
 20
4.338512140847993
 30
-13.84184856720141
 10
403.6051482168093
 20
5.1168302674087
 30
-13.57341178068916
 10
403.3962420696116
 20
5.447053627212271
 30
-13.44191361368811
 10
402.9780050861024
 20
6.04331732572219
 30
-13.18460278188942
 10
402.7687220685141
 20
6.308026877824069
 30
-13.05877809866965
 10
402.1406489153207
 20
7.030389270071201
 30
-12.69310311839204
 10
401.7213903866584
 20
7.423863192130518
 30
-12.46189108385257
 10
400.8825781486133
 20
8.104711270570963
 30
-12.03021734225755
 10
400.4628670168958
 20
8.39038139389236
 30
-11.82982877572057
 10
399.2033644734908
 20
9.12672168345019
 30
-11.2839004868502
 10
398.3630157984707
 20
9.457583682930712
 30
-10.99505941419323
 10
396.6824125444417
 20
9.89747957158591
 30
-10.60080885768187
 10
395.8419210834301
 20
10.00136329851773
 30
-10.49870162643551
 10
394.1602152372117
 20
9.998589204771886
 30
-10.50134360842432
 10
393.3195842623859
 20
9.888981139829626
 30
-10.60863235944142
 10
391.6387137396218
 20
9.454477188937393
 30
-10.99763108159005
 10
390.7984696392733
 20
9.129787152980295
 30
-11.28128210392358
 10
389.5390363300465
 20
8.39675349654469
 30
-11.82527447382983
 10
389.1193260185246
 20
8.111144943654574
 30
-12.02594294289667
 10
388.2805364333532
 20
7.427332711882715
 30
-12.45988381766765
 10
387.8612963798207
 20
7.031572843838113
 30
-12.69248272263389
 10
387.2332337764635
 20
6.308121779883373
 30
-13.05874067066794
 10
387.0239541507688
 20
6.043370623330565
 30
-13.18456656642885
 10
386.6057177593848
 20
5.447995955627644
 30
-13.44152015595681
 10
386.3968108876532
 20
5.11844971149362
 30
-13.57276841661764
 10
385.9800236690665
 20
4.342228915921694
 30
-13.84065092334735
 10
385.771995180119
 20
3.904721219755168
 30
-13.97760216121656
 10
385.4629754319456
 20
3.016180600278954
 30
-14.186092029936
 10
385.3603801682252
 20
2.690022838430824
 30
-14.25519694831489
 10
385.2095016552395
 20
2.032558059350176
 30
-14.35854879373267
 10
385.1593939958941
 20
1.789111447113999
 30
-14.39270607817742
 10
385.0876823305427
 20
1.315086425580738
 30
-14.44111403940164
 10
385.0641358303288
 20
1.134823159718804
 30
-14.45722151521061
 10
385.0220761335312
 20
0.6926347053804415
 30
-14.48514186014777
 10
385.0011556286258
 20
0.4324908988963423
 30
-14.49930436540382
 10
385.0000287701235
 20
0.0239875310395961
 30
-14.49998015855037
  0
ARC
  5
157
330
154
100
AcDbEntity
  8
Predefinito
 62
     9
420
 12566463
100
AcDbCircle
 10
0.0000000000000605
 20
-0.0000000000000017
 30
19.0
 40
14.5
210
1.0
220
-3.185191574097001E-15
230
0.0
100
AcDbArc
 50
180.0
 51
0.0
  0
ARC
  5
158
330
154
100
AcDbEntity
  8
Predefinito
 62
     9
420
 12566463
100
AcDbCircle
 10
0.0000000000000605
 20
-0.0000000000000017
 30
19.0
 40
14.5
210
1.0
220
-3.185191574097001E-15
230
0.0
100
AcDbArc
 50
0.0
 51
180.0
  0
ARC
  5
159
330
154
100
AcDbEntity
  8
Predefinito
 62
     9
420
 12566463
100
AcDbCircle
 10
-0.0000000000000084
 20
-0.0000000000000031
 30
447.0
 40
14.49999999999999
210
1.0
220
0.0
230
0.0
100
AcDbArc
 50
180.0
 51
270.0
  0
LINE
  5
15A
330
154
100
AcDbEntity
  8
Predefinito
 62
     9
420
 12566463
100
AcDbLine
 10
447.0
 20
-14.5
 30
-0.0000000000000017
 11
18.99999999999995
 21
-14.5
 31
-0.000000000000001
  0
ARC
  5
15B
330
154
100
AcDbEntity
  8
Predefinito
 62
     9
420
 12566463
100
AcDbCircle
 10
0.0
 20
-0.0000000000000017
 30
0.0000000000000192
 40
17.5
210
1.0
220
-1.493609690913064E-16
230
0.0
100
AcDbArc
 50
0.0
 51
180.0
  0
ARC
  5
15C
330
154
100
AcDbEntity
  8
Predefinito
 62
     9
420
 12566463
100
AcDbCircle
 10
0.0
 20
-0.0000000000000017
 30
0.0000000000000192
 40
17.5
210
1.0
220
-1.493609690913063E-16
230
0.0
100
AcDbArc
 50
180.0
 51
0.0
  0
ARC
  5
15D
330
154
100
AcDbEntity
  8
Predefinito
 62
     9
420
 12566463
100
AcDbCircle
 10
0.0000000000007344
 20
-0.0000000000000017
 30
450.0
 40
17.5
210
1.0
220
-1.624097681737372E-15
230
0.0
100
AcDbArc
 50
0.000000000000007
 51
180.0
  0
SPLINE
  5
15E
330
154
100
AcDbEntity
  8
Predefinito
 62
     9
420
 12566463
100
AcDbSpline
 70
     0
 71
     3
 72
    52
 73
    48
 74
     0
 42
0.000000001
 43
0.0000000001
 40
0.0
 40
0.0
 40
0.0
 40
0.0
 40
0.0001248967510923
 40
0.0001248967510923
 40
0.0002497935021846
 40
0.0002497935021846
 40
0.0004995870043692
 40
0.0004995870043692
 40
0.0009991740087384
 40
0.0009991740087384
 40
0.0019983480174768
 40
0.0019983480174768
 40
0.0029975220262152
 40
0.0029975220262152
 40
0.0039966960349537
 40
0.0039966960349537
 40
0.0059939679645604
 40
0.0059939679645604
 40
0.0079912398941671
 40
0.0079912398941671
 40
0.0119857440078454
 40
0.0119857440078454
 40
0.0159802445868886
 40
0.0159802445868886
 40
0.0199747347642361
 40
0.0199747347642361
 40
0.0239692355366308
 40
0.0239692355366308
 40
0.0259665008352676
 40
0.0259665008352676
 40
0.0279637661339044
 40
0.0279637661339044
 40
0.02896288156896
 40
0.02896288156896
 40
0.0299619970040156
 40
0.0299619970040156
 40
0.0309611124390712
 40
0.0309611124390712
 40
0.031460670156599
 40
0.031460670156599
 40
0.0317104490153629
 40
0.0317104490153629
 40
0.0318353384447449
 40
0.0318353384447449
 40
0.0318977831594359
 40
0.0318977831594359
 40
0.0319602278592388
 40
0.0319602278592388
 40
0.0319602278592388
 40
0.0319602278592388
 10
404.9999999999999
 20
0.0000000000000013
 30
-17.50000000000002
 10
405.0005119961373
 20
0.5053525370591666
 30
-17.50000000000002
 10
404.9746611979255
 20
0.7503858268265581
 30
-17.485395130519
 10
404.9290542612525
 20
1.206275559165391
 30
-17.45986887221207
 10
404.9048180721844
 20
1.381421314783445
 30
-17.44611002445838
 10
404.8308122931738
 20
1.85467856095694
 30
-17.40432379534766
 10
404.7800614369511
 20
2.092895380491422
 30
-17.37576523148982
 10
404.6273559706451
 20
2.740526790790803
 30
-17.28956988253573
 10
404.5240840971172
 20
3.061991980872663
 30
-17.23260298279052
 10
404.213696142203
 20
3.93742502702557
 30
-17.0616612898682
 10
404.0054030368223
 20
4.370230604032786
 30
-16.95026363537419
 10
403.5883352052876
 20
5.140973643974377
 30
-16.73262510286639
 10
403.3794869240767
 20
5.468428118507424
 30
-16.62663353647092
 10
402.9615038192391
 20
6.061532594257363
 30
-16.41969766628295
 10
402.7524020533907
 20
6.325181265439366
 30
-16.31898297637993
 10
402.1250155180873
 20
7.045397601552161
 30
-16.02749441579729
 10
401.7064177545615
 20
7.439035094031764
 30
-15.84469595462241
 10
400.8690354655254
 20
8.118021379103098
 30
-15.50778391367022
 10
400.4501361527144
 20
8.401880971667188
 30
-15.35372349886414
 10
399.1932759031962
 20
9.132349696795128
 30
-14.93867127086904
 10
398.354987907886
 20
9.457570523717553
 30
-14.72657765359463
 10
396.6782043298385
 20
9.891300171523984
 30
-14.43883341532096
 10
395.8396975290892
 20
9.999820486803477
 30
-14.36153161334107
 10
394.162576834159
 20
10.00018487490337
 30
-14.36127788593491
 10
393.3240719441729
 20
9.892237635650542
 30
-14.43818716653498
 10
391.6472946291743
 20
9.458899556394796
 30
-14.72572013983671
 10
390.8090083504993
 20
9.133170830097681
 30
-14.93817998936883
 10
389.5521489061609
 20
8.402345599817458
 30
-15.35347183197394
 10
389.1332520144755
 20
8.11861277352539
 30
-15.50746288045593
 10
388.2958692369365
 20
7.440487243133785
 30
-15.84400290141136
 10
387.8772693127488
 20
7.047856917998283
 30
-16.02638311966599
 10
387.2498914672412
 20
6.3290063716171
 30
-16.31749226202543
 10
387.0407991774977
 20
6.065794850542313
 30
-16.41811499692144
 10
386.6228327308045
 20
5.473596573923532
 30
-16.62492429357003
 10
386.413991937415
 20
5.14634322751058
 30
-16.7309697303847
 10
385.9969558574646
 20
4.376047738371901
 30
-16.94875815291148
 10
385.7886807625757
 20
3.942965932994474
 30
-17.0603872530948
 10
385.4783040432458
 20
3.067349531936406
 30
-17.23165155295649
 10
385.3750551931922
 20
2.745894817212604
 30
-17.28869688419144
 10
385.2223151909673
 20
2.099550968255793
 30
-17.37495698719445
 10
385.1715760097865
 20
1.86197459723599
 30
-17.40350202803991
 10
385.0974825879482
 20
1.392261196156604
 30
-17.44523765449647
 10
385.0731855974152
 20
1.217384494727172
 30
-17.45903658960865
 10
385.0388821198856
 20
0.8825707545340054
 30
-17.4780881327039
 10
385.0281086927887
 20
0.7622552767583712
 30
-17.48411364254619
 10
385.0088732116338
 20
0.4445577391265106
 30
-17.49507448903697
 10
385.0008797751939
 20
0.2864318445263105
 30
-17.4994662006887
 10
385.0000602639179
 20
0.0347170668482657
 30
-17.49996556354523
  0
SPLINE
  5
15F
330
154
100
AcDbEntity
  8
Predefinito
 62
     9
420
 12566463
100
AcDbSpline
 70
     0
 71
     3
 72
    52
 73
    48
 74
     0
 42
0.000000001
 43
0.0000000001
 40
0.0319602278592388
 40
0.0319602278592388
 40
0.0319602278592388
 40
0.0319602278592388
 40
0.0320851273263744
 40
0.0320851273263744
 40
0.0322100268232884
 40
0.0322100268232884
 40
0.0324598258171163
 40
0.0324598258171163
 40
0.0329594238047722
 40
0.0329594238047722
 40
0.0339586197800838
 40
0.0339586197800838
 40
0.0349578157553955
 40
0.0349578157553955
 40
0.0359570117307072
 40
0.0359570117307072
 40
0.0379542680996247
 40
0.0379542680996247
 40
0.0399515244685422
 40
0.0399515244685422
 40
0.0439459978733398
 40
0.0439459978733398
 40
0.0479404671229204
 40
0.0479404671229204
 40
0.0519349266503303
 40
0.0519349266503303
 40
0.0559293964765091
 40
0.0559293964765091
 40
0.0579266461224076
 40
0.0579266461224076
 40
0.0599238957683062
 40
0.0599238957683062
 40
0.0609230357558491
 40
0.0609230357558491
 40
0.0619221757433919
 40
0.0619221757433919
 40
0.0629213157309348
 40
0.0629213157309348
 40
0.0634208857247062
 40
0.0634208857247062
 40
0.063670670721592
 40
0.063670670721592
 40
0.0637955632200348
 40
0.0637955632200348
 40
0.0638580094692563
 40
0.0638580094692563
 40
0.0639204557184777
 40
0.0639204557184777
 40
0.0639204557184777
 40
0.0639204557184777
 10
385.0000602639179
 20
0.0347170668482657
 30
-17.49996556354523
 10
384.998418185245
 20
-0.4696572746923258
 30
-17.50096615257209
 10
385.0241981981768
 20
-0.7234538578842967
 30
-17.48658360920977
 10
385.0697061591629
 20
-1.187483475724461
 30
-17.46121057736256
 10
385.0938822293226
 20
-1.363013439163035
 30
-17.44757077562218
 10
385.1677989918862
 20
-1.840554968058384
 30
-17.40587498037067
 10
385.2185470930427
 20
-2.080541130218176
 30
-17.37726594794119
 10
385.371202121703
 20
-2.732275430689774
 30
-17.2909445621364
 10
385.4744896502481
 20
-3.055568075991136
 30
-17.23376441123659
 10
385.7848897784294
 20
-3.934668108670848
 30
-17.06238304196378
 10
385.9932238213578
 20
-4.368152731284208
 30
-16.95081150215615
 10
386.4103626916082
 20
-5.139915230747634
 30
-16.73296268704928
 10
386.6192480842196
 20
-5.46733671511845
 30
-16.62699383294719
 10
387.0373021345773
 20
-6.060591686201367
 30
-16.42004637906035
 10
387.2464406635833
 20
-6.324165495738221
 30
-16.31937588505524
 10
387.8739272489027
 20
-7.044252723107226
 30
-16.02799402957062
 10
388.2925860989407
 20
-7.438132796712268
 30
-15.84512343816125
 10
389.1300910750329
 20
-8.117426424097523
 30
-15.50809932007972
 10
389.5490524681105
 20
-8.401463810273043
 30
-15.35395320013307
 10
390.8060964724148
 20
-9.132146364550977
 30
-14.93880144802858
 10
391.6445088368752
 20
-9.457216635070694
 30
-14.7268044194578
 10
393.3215403619284
 20
-9.890906530289312
 30
-14.43910256074873
 10
394.1601707611671
 20
-9.9996138712892
 30
-14.36167548224725
 10
395.8375379028058
 20
-10.00040487102459
 30
-14.36112469996163
 10
396.6761669339766
 20
-9.892647100983954
 30
-14.4379100744497
 10
398.3531907720391
 20
-9.458994042541862
 30
-14.72566283855601
 10
399.1915998973377
 20
-9.132727885911434
 30
-14.93846875079064
 10
400.4486432887127
 20
-8.401254822321437
 30
-15.35407308777569
 10
400.8676015968996
 20
-8.117350746971427
 30
-15.50812297755039
 10
401.7051084565364
 20
-7.439238306445005
 30
-15.84458881940789
 10
402.1237712480347
 20
-7.04683871452705
 30
-16.02681543597265
 10
402.7512512386398
 20
-6.328634877405179
 30
-16.31763269081854
 10
402.9603818943502
 20
-6.065629824454426
 30
-16.41817539567669
 10
403.3784235508946
 20
-5.473486208490171
 30
-16.62496006659813
 10
403.5873007229159
 20
-5.146201393295535
 30
-16.73103043814957
 10
404.0044078700813
 20
-4.374522153000389
 30
-16.94916883612743
 10
404.2127158437432
 20
-3.940261816273697
 30
-17.0611209606353
 10
404.5230998188339
 20
-3.059998375025239
 30
-17.23298545953071
 10
404.6263551309685
 20
-2.73656789887302
 30
-17.29025029869289
 10
404.7790503209844
 20
-2.085763905643282
 30
-17.37663600194423
 10
404.8297822300867
 20
-1.846484262288558
 30
-17.40520083095914
 10
404.9038012197504
 20
-1.372733316778081
 30
-17.44679722084352
 10
404.9280573743257
 20
-1.19677947842723
 30
-17.46049900294143
 10
404.9622780548444
 20
-0.8575382365334195
 30
-17.47934366075596
 10
404.9729957335481
 20
-0.736402093443889
 30
-17.48524390924962
 10
404.9919596835363
 20
-0.4138219772984299
 30
-17.49585076468945
 10
404.9997441086701
 20
-0.2525709147575219
 30
-17.50000000000002
 10
404.9999999999999
 20
0.0000000000000013
 30
-17.50000000000002
  0
LINE
  5
160
330
154
100
AcDbEntity
  8
Predefinito
 62
     9
420
 12566463
100
AcDbLine
 10
449.9999999999999
 20
-17.5
 30
-0.0000000000000017
 11
0.0000000000000166
 21
-17.5
 31
-0.0000000000000026
  0
ARC
  5
161
330
154
100
AcDbEntity
  8
Predefinito
 62
     9
420
 12566463
100
AcDbCircle
 10
-0.0000000000000053
 20
0.0
 30
8.0
 40
16.5
210
1.0
220
2.462258492575599E-66
230
8.042346558338026E-50
100
AcDbArc
 50
180.0
 51
0.0
  0
ARC
  5
162
330
154
100
AcDbEntity
  8
Predefinito
 62
     9
420
 12566463
100
AcDbCircle
 10
-0.0000000000000051
 20
0.0
 30
8.0
 40
16.5
210
1.0
220
-2.691449756667047E-17
230
0.0
100
AcDbArc
 50
0.0
 51
180.0
  0
ARC
  5
163
330
154
100
AcDbEntity
  8
Predefinito
 62
     9
420
 12566463
100
AcDbCircle
 10
-0.0000000000000053
 20
0.0
 30
-0.0000000000000072
 40
16.5
210
1.0
220
3.216619629665457E-16
230
0.0
100
AcDbArc
 50
0.0
 51
180.0
  0
ARC
  5
164
330
154
100
AcDbEntity
  8
Predefinito
 62
     9
420
 12566463
100
AcDbCircle
 10
-0.0000000000000053
 20
0.0
 30
-0.0000000000000072
 40
16.5
210
1.0
220
3.216619629665457E-16
230
-1.221933907491014E-48
100
AcDbArc
 50
180.0
 51
0.0
  0
LINE
  5
165
330
154
100
AcDbEntity
  8
Predefinito
 62
     9
420
 12566463
100
AcDbLine
 10
7.999999999999999
 20
-16.50000000000001
 30
0.0000000000000008
 11
-0.0000000000000019
 21
-16.50000000000001
 31
0.0000000000000008
  0
ARC
  5
166
330
154
100
AcDbEntity
  8
Predefinito
 62
     9
420
 12566463
100
AcDbCircle
 10
-0.0000000000000025
 20
0.0
 30
8.500000000000002
 40
15.05
210
1.0
220
-1.180303547774253E-16
230
0.0
100
AcDbArc
 50
180.0
 51
0.0
  0
ARC
  5
167
330
154
100
AcDbEntity
  8
Predefinito
 62
     9
420
 12566463
100
AcDbCircle
 10
-0.0000000000000034
 20
0.0
 30
8.500000000000002
 40
15.05
210
1.0
220
-1.180303547774253E-16
230
0.0
100
AcDbArc
 50
0.0
 51
180.0
  0
ARC
  5
168
330
154
100
AcDbEntity
  8
Predefinito
 62
     9
420
 12566463
100
AcDbCircle
 10
-0.0000000000000008
 20
0.0
 30
19.0
 40
15.05
210
1.0
220
-2.360607095548505E-16
230
0.0
100
AcDbArc
 50
180.0
 51
0.0
  0
ARC
  5
169
330
154
100
AcDbEntity
  8
Predefinito
 62
     9
420
 12566463
100
AcDbCircle
 10
-0.0000000000000031
 20
0.0
 30
19.0
 40
15.05
210
1.0
220
-1.180303547774253E-16
230
0.0
100
AcDbArc
 50
0.0
 51
180.0
  0
LINE
  5
16A
330
154
100
AcDbEntity
  8
Predefinito
 62
     9
420
 12566463
100
AcDbLine
 10
8.500000000000004
 20
15.05
 30
0.0
 11
19.0
 21
15.05
 31
0.0000000000000007
  0
LINE
  5
16B
330
154
100
AcDbEntity
  8
Predefinito
 62
     9
420
 12566463
100
AcDbLine
 10
404.9999999999999
 20
0.0000000000000013
 30
-17.50000000000002
 11
405.0000000000001
 21
0.0000000000000011
 31
-14.49999999999999
  0
ARC
  5
16C
330
154
100
AcDbEntity
  8
Predefinito
 62
     9
420
 12566463
100
AcDbCircle
 10
-0.0000000000000044
 20
0.0
 30
7.999999999999999
 40
15.55
210
1.0
220
0.0
230
0.0
100
AcDbArc
 50
180.0
 51
0.0
  0
ARC
  5
16D
330
154
100
AcDbEntity
  8
Predefinito
 62
     9
420
 12566463
100
AcDbCircle
 10
-0.0000000000000042
 20
0.0
 30
8.0
 40
15.55
210
1.0
220
-2.855879163022911E-17
230
0.0
100
AcDbArc
 50
0.000000000000007
 51
180.0
  0
LINE
  5
16E
330
154
100
AcDbEntity
  8
Predefinito
 62
     9
420
 12566463
100
AcDbLine
 10
8.5
 20
-15.05000000000001
 30
0.0
 11
7.999999999999999
 21
-15.55000000000001
 31
0.0000000000000008
  0
ARC
  5
16F
330
154
100
AcDbEntity
  8
Predefinito
 62
     9
420
 12566463
100
AcDbCircle
 10
0.0000000000000044
 20
-0.0000000000000169
 30
447.0
 40
14.5
210
1.0
220
0.0
230
0.0
100
AcDbArc
 50
89.99999999999999
 51
179.9999999999999
  0
ARC
  5
170
330
154
100
AcDbEntity
  8
Predefinito
 62
     9
420
 12566463
100
AcDbCircle
 10
0.0
 20
-0.0000000000000036
 30
447.0
 40
14.49999999999999
210
1.0
220
0.0
230
0.0
100
AcDbArc
 50
270.0
 51
90.0
  0
ARC
  5
171
330
154
100
AcDbEntity
  8
Predefinito
 62
     9
420
 12566463
100
AcDbCircle
 10
-0.0000000000000071
 20
-0.0000000000014759
 30
450.0
 40
17.49999999999999
210
1.0
220
3.297116599780880E-31
230
3.248195363474742E-15
100
AcDbArc
 50
180.0
 51
270.0
  0
ARC
  5
172
330
154
100
AcDbEntity
  8
Predefinito
 62
     9
420
 12566463
100
AcDbCircle
 10
0.0
 20
-0.0000000000000036
 30
450.0
 40
17.50000000000001
210
1.0
220
0.0
230
0.0
100
AcDbArc
 50
270.0
 51
0.0
  0
LINE
  5
173
330
154
100
AcDbEntity
  8
Predefinito
 62
     9
420
 12566463
100
AcDbLine
 10
447.0
 20
0.0
 30
-14.49999999999999
 11
450.0
 21
0.0
 31
-17.50000000000001
  0
CIRCLE
  5
174
330
154
100
AcDbEntity
  8
Predefinito
 62
     9
420
 12566463
100
AcDbCircle
 10
0.0
 20
-0.0000000000000017
 30
233.0
 40
14.5
210
1.0
220
0.0
230
0.0
  0
LINE
  5
175
330
154
100
AcDbEntity
  8
Predefinito
 62
     9
420
 12566463
100
AcDbLine
 10
447.0
 20
0.0
 30
14.5
 11
19.00000000000002
 21
0.0
 31
14.5
  0
LINE
  5
176
330
154
100
AcDbEntity
  8
Predefinito
 62
     9
420
 12566463
100
AcDbLine
 10
447.0
 20
14.5
 30
-0.0000000000000017
 11
19.00000000000002
 21
14.5
 31
-0.0000000000000017
  0
LINE
  5
177
330
154
100
AcDbEntity
  8
Predefinito
 62
     9
420
 12566463
100
AcDbLine
 10
447.0000000000001
 20
0.0
 30
-14.5
 11
405.0000000000002
 21
0.0
 31
-14.5
  0
LINE
  5
178
330
154
100
AcDbEntity
  8
Predefinito
 62
     9
420
 12566463
100
AcDbLine
 10
384.9999869574416
 20
0.0
 30
-14.5
 11
18.99999999999996
 21
0.0
 31
-14.5
  0
CIRCLE
  5
179
330
154
100
AcDbEntity
  8
Predefinito
 62
     9
420
 12566463
100
AcDbCircle
 10
0.0
 20
-0.0000000000000017
 30
225.0
 40
17.5
210
1.0
220
0.0
230
0.0
  0
LINE
  5
17A
330
154
100
AcDbEntity
  8
Predefinito
 62
     9
420
 12566463
100
AcDbLine
 10
449.9999999999999
 20
0.0
 30
17.5
 11
-0.0000000000000142
 21
0.0
 31
17.5
  0
LINE
  5
17B
330
154
100
AcDbEntity
  8
Predefinito
 62
     9
420
 12566463
100
AcDbLine
 10
449.9999999999999
 20
17.5
 30
-0.0000000000000017
 11
-0.0000000000000142
 21
17.5
 31
-0.0000000000000017
  0
LINE
  5
17C
330
154
100
AcDbEntity
  8
Predefinito
 62
     9
420
 12566463
100
AcDbLine
 10
449.9999999999999
 20
0.0
 30
-17.5
 11
404.9999999999998
 21
0.0
 31
-17.5
  0
LINE
  5
17D
330
154
100
AcDbEntity
  8
Predefinito
 62
     9
420
 12566463
100
AcDbLine
 10
384.9999950248213
 20
0.0
 30
-17.5
 11
-0.0000000000000213
 21
0.0
 31
-17.5
  0
LINE
  5
17E
330
154
100
AcDbEntity
  8
Predefinito
 62
     9
420
 12566463
100
AcDbLine
 10
0.0000000000000011
 20
17.5
 30
-0.0000000000000017
 11
0.000000000000001
 21
16.5
 31
-0.0000000000000017
  0
LINE
  5
17F
330
154
100
AcDbEntity
  8
Predefinito
 62
     9
420
 12566463
100
AcDbLine
 10
-0.000000000000001
 20
-16.5
 30
-0.0000000000000017
 11
-0.0000000000000011
 21
-17.5
 31
-0.0000000000000017
  0
LINE
  5
180
330
154
100
AcDbEntity
  8
Predefinito
 62
     9
420
 12566463
100
AcDbLine
 10
0.0
 20
0.0
 30
-17.5
 11
0.0
 21
0.0
 31
-16.49999999999999
  0
LINE
  5
181
330
154
100
AcDbEntity
  8
Predefinito
 62
     9
420
 12566463
100
AcDbLine
 10
0.0
 20
0.0
 30
16.5
 11
0.0
 21
0.0
 31
17.5
  0
LINE
  5
182
330
154
100
AcDbEntity
  8
Predefinito
 62
     9
420
 12566463
100
AcDbLine
 10
8.0
 20
-16.5
 30
0.0
 11
8.0
 21
-15.55
 31
0.0
  0
LINE
  5
183
330
154
100
AcDbEntity
  8
Predefinito
 62
     9
420
 12566463
100
AcDbLine
 10
8.000000000000002
 20
15.54999999999999
 30
0.0
 11
8.000000000000002
 21
16.49999999999999
 31
0.0
  0
LINE
  5
184
330
154
100
AcDbEntity
  8
Predefinito
 62
     9
420
 12566463
100
AcDbLine
 10
8.0
 20
-0.0000000000000022
 30
-16.49999999999999
 11
8.0
 21
-0.0000000000000022
 31
-15.55
  0
LINE
  5
185
330
154
100
AcDbEntity
  8
Predefinito
 62
     9
420
 12566463
100
AcDbLine
 10
8.0
 20
-0.0000000000000022
 30
15.55
 11
8.0
 21
-0.0000000000000022
 31
16.5
  0
CIRCLE
  5
186
330
154
100
AcDbEntity
  8
Predefinito
 62
     9
420
 12566463
100
AcDbCircle
 10
-0.0000000000000035
 20
0.0
 30
4.0
 40
16.5
210
1.0
220
-6.123031769111886E-17
230
0.0
  0
LINE
  5
187
330
154
100
AcDbEntity
  8
Predefinito
 62
     9
420
 12566463
100
AcDbLine
 10
8.000000000000002
 20
-0.000000000000004
 30
16.5
 11
-0.000000000000001
 21
-0.0000000000000035
 31
16.5
  0
LINE
  5
188
330
154
100
AcDbEntity
  8
Predefinito
 62
     9
420
 12566463
100
AcDbLine
 10
8.000000000000002
 20
16.5
 30
0.0
 11
-0.0000000000000001
 21
16.5
 31
0.0
  0
LINE
  5
189
330
154
100
AcDbEntity
  8
Predefinito
 62
     9
420
 12566463
100
AcDbLine
 10
8.000000000000002
 20
-0.000000000000004
 30
-16.5
 11
-0.000000000000001
 21
-0.0000000000000035
 31
-16.5
  0
LINE
  5
18A
330
154
100
AcDbEntity
  8
Predefinito
 62
     9
420
 12566463
100
AcDbLine
 10
19.0
 20
-15.05000000000001
 30
0.0
 11
19.0
 21
-14.5
 31
0.0
  0
LINE
  5
18B
330
154
100
AcDbEntity
  8
Predefinito
 62
     9
420
 12566463
100
AcDbLine
 10
19.0
 20
14.5
 30
0.0
 11
19.0
 21
15.05
 31
0.0
  0
LINE
  5
18C
330
154
100
AcDbEntity
  8
Predefinito
 62
     9
420
 12566463
100
AcDbLine
 10
19.0
 20
-0.0000000000000029
 30
-15.05
 11
19.0
 21
-0.0000000000000029
 31
-14.5
  0
LINE
  5
18D
330
154
100
AcDbEntity
  8
Predefinito
 62
     9
420
 12566463
100
AcDbLine
 10
19.0
 20
-0.0000000000000029
 30
14.5
 11
19.0
 21
-0.0000000000000029
 31
15.05
  0
CIRCLE
  5
18E
330
154
100
AcDbEntity
  8
Predefinito
 62
     9
420
 12566463
100
AcDbCircle
 10
-0.0000000000000035
 20
0.0
 30
13.75
 40
15.05
210
1.0
220
-6.123031769111881E-17
230
0.0
  0
LINE
  5
18F
330
154
100
AcDbEntity
  8
Predefinito
 62
     9
420
 12566463
100
AcDbLine
 10
8.5
 20
-0.000000000000004
 30
15.05
 11
19.0
 21
-0.0000000000000047
 31
15.05
  0
LINE
  5
190
330
154
100
AcDbEntity
  8
Predefinito
 62
     9
420
 12566463
100
AcDbLine
 10
8.499999999999998
 20
-15.05000000000001
 30
0.0
 11
19.0
 21
-15.05000000000001
 31
0.0
  0
LINE
  5
191
330
154
100
AcDbEntity
  8
Predefinito
 62
     9
420
 12566463
100
AcDbLine
 10
8.5
 20
-0.000000000000004
 30
-15.05
 11
19.0
 21
-0.0000000000000047
 31
-15.05
  0
ARC
  5
192
330
154
100
AcDbEntity
  8
Predefinito
 62
     9
420
 12566463
100
AcDbCircle
 10
395.0
 20
0.0
 30
-14.0106641280517
 40
10.0
100
AcDbArc
 50
21.92742869007003
 51
158.0773685874375
  0
ARC
  5
193
330
154
100
AcDbEntity
  8
Predefinito
 62
     9
420
 12566463
100
AcDbCircle
 10
395.0
 20
0.0
 30
-14.0106641280517
 40
10.0
100
AcDbArc
 50
201.9277478658648
 51
338.0766009720418
  0
LINE
  5
194
330
154
100
AcDbEntity
  8
Predefinito
 62
     9
420
 12566463
100
AcDbLine
 10
395.0
 20
10.0
 30
-14.36140379490543
 11
395.0
 21
10.0
 31
-10.5000342462838
  0
LINE
  5
195
330
154
100
AcDbEntity
  8
Predefinito
 62
     9
420
 12566463
100
AcDbLine
 10
385.0
 20
0.0
 30
-17.49999307260095
 11
385.0
 21
0.0
 31
-14.50001012654442
  0
LINE
  5
196
330
154
100
AcDbEntity
  8
Predefinito
 62
     9
420
 12566463
100
AcDbLine
 10
395.0
 20
-10.0
 30
-14.36139867870187
 11
395.0
 21
-10.0
 31
-10.50000062504953
  0
LINE
  5
197
330
154
100
AcDbEntity
  8
Predefinito
 62
     9
420
 12566463
100
AcDbLine
 10
8.5
 20
-0.000000000000004
 30
15.05
 11
7.999999999999998
 21
-0.000000000000004
 31
15.55
  0
LINE
  5
198
330
154
100
AcDbEntity
  8
Predefinito
 62
     9
420
 12566463
100
AcDbLine
 10
8.5
 20
15.05
 30
0.0
 11
7.999999999999998
 21
15.55
 31
0.0
  0
LINE
  5
199
330
154
100
AcDbEntity
  8
Predefinito
 62
     9
420
 12566463
100
AcDbLine
 10
8.499999999999998
 20
-0.000000000000004
 30
-15.05
 11
8.000000000000002
 21
-0.000000000000004
 31
-15.55
  0
LINE
  5
19A
330
154
100
AcDbEntity
  8
Predefinito
 62
     9
420
 12566463
100
AcDbLine
 10
447.0000000000001
 20
14.49999999999999
 30
0.0
 11
450.0
 21
17.50000000000001
 31
0.0
  0
LINE
  5
19B
330
154
100
AcDbEntity
  8
Predefinito
 62
     9
420
 12566463
100
AcDbLine
 10
447.0000000000001
 20
0.0
 30
14.49999999999999
 11
450.0
 21
0.0
 31
17.50000000000001
  0
LINE
  5
19C
330
154
100
AcDbEntity
  8
Predefinito
 62
     9
420
 12566463
100
AcDbLine
 10
447.0000000000001
 20
-14.49999999999999
 30
0.0
 11
450.0
 21
-17.50000000000002
 31
0.0
  0
ENDBLK
  5
19E
330
154
100
AcDbEntity
  8
0
100
AcDbBlockEnd
  0
BLOCK
  5
1DE
330
1A0
100
AcDbEntity
  8
0
100
AcDbBlockBegin
  2
10ST03060YY
 70
     0
 10
0.0
 20
0.0
 30
0.0
  3
10ST03060YY
  1
10ST03060YY
  0
ARC
  5
1A1
330
1A0
100
AcDbEntity
  8
Predefinito
 62
     9
420
 12566463
100
AcDbCircle
 10
-0.0000000000000018
 20
-0.0000000000000018
 30
3.999999999999979
 40
13.5
100
AcDbArc
 50
180.0
 51
270.0
  0
ARC
  5
1A2
330
1A0
100
AcDbEntity
  8
Predefinito
 62
     9
420
 12566463
100
AcDbCircle
 10
-0.0000000000000018
 20
0.0000000000000018
 30
3.999999999999979
 40
13.5
100
AcDbArc
 50
90.00000000000001
 51
180.0
  0
LINE
  5
1A3
330
1A0
100
AcDbEntity
  8
Predefinito
 62
     9
420
 12566463
100
AcDbLine
 10
-13.49999999999999
 20
0.0000000000000013
 30
119.5887234393789
 11
-13.5
 21
0.0
 31
3.999999999999975
  0
ARC
  5
1A4
330
1A0
100
AcDbEntity
  8
Predefinito
 62
     9
420
 12566463
100
AcDbCircle
 10
0.0
 20
0.0
 30
4.0
 40
13.5
100
AcDbArc
 50
270.0
 51
90.0
  0
ARC
  5
1A5
330
1A0
100
AcDbEntity
  8
Predefinito
 62
     9
420
 12566463
100
AcDbCircle
 10
0.0000000000000044
 20
0.0
 30
-0.0000000000000004
 40
16.0
100
AcDbArc
 50
0.0
 51
180.0
  0
ARC
  5
1A6
330
1A0
100
AcDbEntity
  8
Predefinito
 62
     9
420
 12566463
100
AcDbCircle
 10
0.0000000000000036
 20
0.0
 30
-0.0000000000000004
 40
16.0
100
AcDbArc
 50
180.0
 51
0.0
  0
SPLINE
  5
1A7
330
1A0
100
AcDbEntity
  8
Predefinito
 62
     9
420
 12566463
100
AcDbSpline
 70
     0
 71
     3
 72
    40
 73
    36
 74
     0
 42
0.000000001
 43
0.0000000001
 40
0.0000000000000002
 40
0.0000000000000002
 40
0.0000000000000002
 40
0.0000000000000002
 40
0.0002151532163536
 40
0.0002151532163536
 40
0.000430306432707
 40
0.000430306432707
 40
0.0008606128654138
 40
0.0008606128654138
 40
0.0017212257308274
 40
0.0017212257308274
 40
0.0034424514616546
 40
0.0034424514616546
 40
0.0068848869873675
 40
0.0068848869873675
 40
0.0103272400866749
 40
0.0103272400866749
 40
0.0137695981249182
 40
0.0137695981249182
 40
0.0172119920089632
 40
0.0172119920089632
 40
0.0206544545633759
 40
0.0206544545633759
 40
0.0223756309647308
 40
0.0223756309647308
 40
0.0240968073660858
 40
0.0240968073660858
 40
0.0258175786633223
 40
0.0258175786633223
 40
0.0266779643119405
 40
0.0266779643119405
 40
0.0271081571362496
 40
0.0271081571362496
 40
0.0273232535484042
 40
0.0273232535484042
 40
0.0275383499605587
 40
0.0275383499605587
 40
0.0275383499605587
 40
0.0275383499605587
 10
0.0000000000000706
 20
-16.00000000000001
 30
130.0000000000002
 10
-0.4648674980661099
 20
-16.00000000000001
 30
130.0000907051249
 10
-0.6937277465465908
 20
-15.98619632740157
 30
129.9684376599519
 10
-1.091760465690272
 20
-15.96395284038736
 30
129.9188621810761
 10
-1.242441962134232
 20
-15.95229083760868
 30
129.8929278573902
 10
-1.657068630416347
 20
-15.91637846816268
 30
129.8141103157727
 10
-1.869251048491063
 20
-15.89162860913671
 30
129.7603329537546
 10
-2.44886933838967
 20
-15.81628516104726
 30
129.5986825461785
 10
-2.749035079042065
 20
-15.76461228460539
 30
129.4896685396914
 10
-3.583250006616426
 20
-15.60388082462256
 30
129.1622633432268
 10
-4.034727816317655
 20
-15.48888925447432
 30
128.9429962524596
 10
-5.2732763801547
 20
-15.13047999682103
 30
128.2846207245146
 10
-5.951624348695369
 20
-14.8687887148561
 30
127.8445904486506
 10
-7.243482182917137
 20
-14.28406986916072
 30
126.9645142521466
 10
-7.842402544856705
 20
-13.96259710806668
 30
126.5242989071934
 10
-8.992705155157964
 20
-13.25098679278888
 30
125.6438384788677
 10
-9.544590390447148
 20
-12.86005140687994
 30
125.2035991948343
 10
-10.62063762634366
 20
-11.98675078235328
 30
124.3233395603917
 10
-11.14474083991649
 20
-11.50469330622101
 30
123.8832929595249
 10
-12.17270290582479
 20
-10.41098184113442
 30
123.0038079178159
 10
-12.67944755569316
 20
-9.798105318373798
 30
122.5643298221852
 10
-13.42659131640122
 20
-8.713176680458613
 30
121.9060442862362
 10
-13.67423897430622
 20
-8.322449810170141
 30
121.6868073621009
 10
-14.16532122487924
 20
-7.45598128788034
 30
121.2489305158496
 10
-14.40969344603035
 20
-6.980183023496201
 30
121.0303386947292
 10
-14.89330056542049
 20
-5.878064990325107
 30
120.5945766406443
 10
-15.13392387099249
 20
-5.26194806400156
 30
120.377301404409
 10
-15.4884167812321
 20
-4.036072707615549
 30
120.0553496390262
 10
-15.60561772766511
 20
-3.582972606830526
 30
119.9484121948123
 10
-15.77641048009453
 20
-2.682931550448402
 30
119.7930095063547
 10
-15.83241431458398
 20
-2.351356983643304
 30
119.7417632133297
 10
-15.91148599805809
 20
-1.695042479377498
 30
119.6699576847964
 10
-15.93716702092165
 20
-1.448808358981363
 30
119.6464198765891
 10
-15.9806859347406
 20
-0.8426240970866812
 30
119.6064199829676
 10
-16.0
 20
-0.4509972790441611
 30
119.588626089848
 10
-16.0
 20
0.0
 30
119.5887296655109
  0
LINE
  5
1A8
330
1A0
100
AcDbEntity
  8
Predefinito
 62
     9
420
 12566463
100
AcDbLine
 10
-16.0
 20
0.0
 30
119.5887296655109
 11
-15.99999999999999
 21
-0.0000000000000008
 31
-0.0000000000000043
  0
SPLINE
  5
1A9
330
1A0
100
AcDbEntity
  8
Predefinito
 62
     9
420
 12566463
100
AcDbSpline
 70
     0
 71
     3
 72
    50
 73
    46
 74
     0
 42
0.000000001
 43
0.0000000001
 40
0.0
 40
0.0
 40
0.0
 40
0.0
 40
0.0001732552027686
 40
0.0001732552027686
 40
0.0003465104055372
 40
0.0003465104055372
 40
0.0006930208110745
 40
0.0006930208110745
 40
0.001386041622149
 40
0.001386041622149
 40
0.0027720832442979
 40
0.0027720832442979
 40
0.0041581248664469
 40
0.0041581248664469
 40
0.0055441664885958
 40
0.0055441664885958
 40
0.0083160985463482
 40
0.0083160985463482
 40
0.0110880306041005
 40
0.0110880306041005
 40
0.0166325665640281
 40
0.0166325665640281
 40
0.0221773997359859
 40
0.0221773997359859
 40
0.0277224895047184
 40
0.0277224895047184
 40
0.0332667970288721
 40
0.0332667970288721
 40
0.0360387395665849
 40
0.0360387395665849
 40
0.0388106821042977
 40
0.0388106821042977
 40
0.0401967006118503
 40
0.0401967006118503
 40
0.0415827191194029
 40
0.0415827191194029
 40
0.0429687376269555
 40
0.0429687376269555
 40
0.0436617468807318
 40
0.0436617468807318
 40
0.0440082515076199
 40
0.0440082515076199
 40
0.044181503821064
 40
0.044181503821064
 40
0.0443547561345081
 40
0.0443547561345081
 40
0.0443547561345081
 40
0.0443547561345081
 10
-13.49999999999999
 20
0.0000000000000013
 30
119.5887234393789
 10
-13.50085683718964
 20
0.6378021298846137
 30
119.5887234393789
 10
-13.46474329966705
 20
1.034938713264275
 30
119.6166270442953
 10
-13.40311198006466
 20
1.650373166771786
 30
119.6639847328815
 10
-13.37046607629924
 20
1.882860751383582
 30
119.6890078007724
 10
-13.27059951376762
 20
2.51656912849932
 30
119.7653878634757
 10
-13.20223717792885
 20
2.835129462480002
 30
119.8174292879142
 10
-12.99594793284368
 20
3.698566717953634
 30
119.9740266213044
 10
-12.85650665587208
 20
4.13580390201473
 30
120.0795782346258
 10
-12.43772376476397
 20
5.316074994556797
 30
120.3958230113096
 10
-12.15675532145318
 20
5.90281977106421
 30
120.6047869353218
 10
-11.59415237067227
 20
6.944380156669061
 30
121.0157950142563
 10
-11.31238830771809
 20
7.387132024010313
 30
121.21801348302
 10
-10.74846516453047
 20
8.186441229491447
 30
121.6151545538532
 10
-10.46635082390694
 20
8.54153181104363
 30
121.8102159603888
 10
-9.619627561353141
 20
9.51124121257251
 30
122.3799350756145
 10
-9.05459205158048
 20
10.03960087698906
 30
122.7435929186917
 10
-7.924224249664023
 20
10.95380275663574
 30
123.4289078991342
 10
-7.358755523028993
 20
11.33731935023444
 30
123.7504061444169
 10
-5.661907099042947
 20
12.3261162681401
 30
124.6348437004714
 10
-4.529981095753148
 20
12.77105292482534
 30
125.1160003273404
 10
-2.266293505768362
 20
13.35996366773442
 30
125.7769029260866
 10
-1.134277964696462
 20
13.49980211304213
 30
125.9529548082407
 10
1.130859236729572
 20
13.50019957683803
 30
125.9534366678993
 10
2.262908904725914
 20
13.36045603462348
 30
125.7774977211181
 10
4.526604516021385
 20
12.77206374138608
 30
125.117092585467
 10
5.658488625846961
 20
12.32786240472302
 30
124.6365975628164
 10
7.355293329242762
 20
11.33959339146268
 30
123.7523446385897
 10
7.92076318286647
 20
10.95623379324685
 30
123.4308723855377
 10
9.05113697329485
 20
10.04272985812043
 30
122.7457972617117
 10
9.616177070971654
 20
9.515137825972507
 30
122.3823962304697
 10
10.46288918511075
 20
8.544045000201278
 30
121.8116071669814
 10
10.74499609021192
 20
8.18829789179954
 30
121.6161274999734
 10
11.30890999530292
 20
7.388440233874799
 30
121.2186132198682
 10
11.59067113491312
 20
6.945817411838552
 30
121.0164921615006
 10
12.15328052736665
 20
5.908417708588531
 30
120.6068668100714
 10
12.43427259639516
 20
5.325635230600438
 30
120.3988453775514
 10
12.85304546100545
 20
4.144787276208524
 30
120.0817588802049
 10
12.99246828765991
 20
3.706280450383557
 30
119.9756006837206
 10
13.19870247363258
 20
2.838808836221899
 30
119.8180102028571
 10
13.26705941070272
 20
2.517689731214713
 30
119.7655993211427
 10
13.36693901217095
 20
1.886950052370187
 30
119.6894629033825
 10
13.39964998517837
 20
1.654422594758959
 30
119.6644582086415
 10
13.46150204151964
 20
1.049168239281349
 30
119.6175649500624
 10
13.49757305533995
 20
0.6788949563035853
 30
119.5903254237793
 10
13.49993268181476
 20
0.0426331616229571
 30
119.588775370498
  0
SPLINE
  5
1AA
330
1A0
100
AcDbEntity
  8
Predefinito
 62
     9
420
 12566463
100
AcDbSpline
 70
     0
 71
     3
 72
    50
 73
    46
 74
     0
 42
0.000000001
 43
0.0000000001
 40
0.0443547561345081
 40
0.0443547561345081
 40
0.0443547561345081
 40
0.0443547561345081
 40
0.0445280118967408
 40
0.0445280118967408
 40
0.0447012676589735
 40
0.0447012676589735
 40
0.045047779183439
 40
0.045047779183439
 40
0.0457408022323699
 40
0.0457408022323699
 40
0.0471268483302316
 40
0.0471268483302316
 40
0.0485128944280934
 40
0.0485128944280934
 40
0.0498989405259552
 40
0.0498989405259552
 40
0.0526708735652998
 40
0.0526708735652998
 40
0.0554428066046443
 40
0.0554428066046443
 40
0.0609873490167317
 40
0.0609873490167317
 40
0.0665321864764658
 40
0.0665321864764658
 40
0.0720772700161475
 40
0.0720772700161475
 40
0.0776215664543829
 40
0.0776215664543829
 40
0.0803935031327827
 40
0.0803935031327827
 40
0.0831654398111825
 40
0.0831654398111825
 40
0.0845514579256409
 40
0.0845514579256409
 40
0.0859374760400994
 40
0.0859374760400994
 40
0.0873234941545578
 40
0.0873234941545578
 40
0.088016503211787
 40
0.088016503211787
 40
0.0883630077404016
 40
0.0883630077404016
 40
0.0885362600047089
 40
0.0885362600047089
 40
0.0887095122690162
 40
0.0887095122690162
 40
0.0887095122690162
 40
0.0887095122690162
 10
13.49993268181476
 20
0.0426331616229571
 30
119.588775370498
 10
13.50229501738932
 20
-0.5943591286171362
 30
119.5872235375922
 10
13.46622728337305
 20
-1.005317999686276
 30
119.6148156354078
 10
13.40481178366292
 20
-1.630016176512046
 30
119.6619863527501
 10
13.37224473921486
 20
-1.8649064148556
 30
119.687044349137
 10
13.27253079690131
 20
-2.505936634266165
 30
119.7637262974232
 10
13.20417903151425
 20
-2.82673825770535
 30
119.816030100594
 10
12.9979161117263
 20
-3.694385118060774
 30
119.9730272510092
 10
12.85844260138989
 20
-4.131812854590624
 30
120.0786090357437
 10
12.43959494778118
 20
-5.312069647552487
 30
120.3945509824998
 10
12.15857145308819
 20
-5.898396649703256
 30
120.6031943879344
 10
11.59587054003992
 20
-6.940571291494961
 30
121.0141403564206
 10
11.31406204249937
 20
-7.38370375596036
 30
121.2164059083928
 10
10.75005007662591
 20
-8.18387305511991
 30
121.6137834789812
 10
10.46789052606988
 20
-8.539303862433933
 30
121.8089633816521
 10
9.621030384176466
 20
-9.509848506556
 30
122.3790046035146
 10
9.055901468193095
 20
-10.0384736798625
 30
122.7427978802164
 10
7.925347652558003
 20
-10.95297348703123
 30
123.4282364142866
 10
7.359785674755448
 20
-11.33669532952772
 30
123.7498705336125
 10
5.66265740529464
 20
-12.32587912337342
 30
124.6345865303291
 10
4.530543702961949
 20
-12.77081171923749
 30
125.1157353815831
 10
2.266484177663033
 20
-13.36000377999417
 30
125.7769421973584
 10
1.134286266882193
 20
-13.49995977645349
 30
125.9531459492844
 10
-1.131229094330376
 20
-13.50003781909904
 30
125.9532405631559
 10
-2.263466406235245
 20
-13.36061334412697
 30
125.7776812916773
 10
-4.52753476939457
 20
-12.77215202823456
 30
125.1171846735081
 10
-5.659603502890922
 20
-12.32693903431427
 30
124.6356810393566
 10
-7.356689426212996
 20
-11.33856432981116
 30
123.7514691545631
 10
-7.922253954772603
 20
-10.95537449759919
 30
123.4301711262386
 10
-9.05281261122565
 20
-10.04135736840134
 30
122.7448249500041
 10
-9.617944566420354
 20
-9.51330554883557
 30
122.3812048247408
 10
-10.46479683553986
 20
-8.541983405563354
 30
121.8104528829699
 10
-10.74695028146571
 20
-8.186105947685524
 30
121.6149511183219
 10
-11.31095341747769
 20
-7.38515077402478
 30
121.2170660440228
 10
-11.59275451908027
 20
-6.941316330475479
 30
121.0145185323084
 10
-12.1554516045314
 20
-5.902218533308965
 30
120.6046173920593
 10
-12.4364958797581
 20
-5.320135015727204
 30
120.3973010915248
 10
-12.85540304666943
 20
-4.14550197271074
 30
120.0819845533004
 10
-12.99489515934215
 20
-3.710213767276115
 30
119.9764215873229
 10
-13.20113623671296
 20
-2.841420786930775
 30
119.818431949937
 10
-13.26945355391991
 20
-2.518895243579335
 30
119.765611723194
 10
-13.36919865184022
 20
-1.878289844723067
 30
119.6884853532464
 10
-13.40179977317596
 20
-1.64233150221338
 30
119.663204679569
 10
-13.46329913748982
 20
-1.024594746000088
 30
119.6159971947965
 10
-13.49914323241838
 20
-0.6377503159029326
 30
119.5887234393789
 10
-13.49999999999999
 20
0.0000000000000013
 30
119.5887234393789
  0
SPLINE
  5
1AB
330
1A0
100
AcDbEntity
  8
Predefinito
 62
     9
420
 12566463
100
AcDbSpline
 70
     0
 71
     3
 72
    60
 73
    56
 74
     0
 42
0.000000001
 43
0.0000000001
 40
0.0550185817647211
 40
0.0550185817647211
 40
0.0550185817647211
 40
0.0550185817647211
 40
0.0618959305844707
 40
0.0618959305844707
 40
0.0653344128198247
 40
0.0653344128198247
 40
0.0687728950551788
 40
0.0687728950551788
 40
0.0722106997345036
 40
0.0722106997345036
 40
0.0756485044138285
 40
0.0756485044138285
 40
0.0773680710270611
 40
0.0773680710270611
 40
0.0790876376402937
 40
0.0790876376402937
 40
0.07994742094691
 40
0.07994742094691
 40
0.0808072042535263
 40
0.0808072042535263
 40
0.0816669875601427
 40
0.0816669875601427
 40
0.0820968792134508
 40
0.0820968792134508
 40
0.0823118250401049
 40
0.0823118250401049
 40
0.0824192979534319
 40
0.0824192979534319
 40
0.082526770866759
 40
0.082526770866759
 40
0.0827416553842348
 40
0.0827416553842348
 40
0.0829565399017107
 40
0.0829565399017107
 40
0.0833863089366625
 40
0.0833863089366625
 40
0.084245847006566
 40
0.084245847006566
 40
0.0851053850764694
 40
0.0851053850764694
 40
0.0859649231463729
 40
0.0859649231463729
 40
0.0876839992861799
 40
0.0876839992861799
 40
0.0894030754259869
 40
0.0894030754259869
 40
0.0928420025400696
 40
0.0928420025400696
 40
0.0962809296541523
 40
0.0962809296541523
 40
0.0997198786629584
 40
0.0997198786629584
 40
0.1031588276717646
 40
0.1031588276717646
 40
0.110037163529442
 40
0.110037163529442
 40
0.110037163529442
 40
0.110037163529442
 10
-0.0051257103695388
 20
15.99999917897153
 30
129.9999981468521
 10
1.338285594417288
 20
16.00163579832031
 30
130.0036921690008
 10
2.680377391162642
 20
15.83537471005846
 30
129.6021132752519
 10
4.69304522825536
 20
15.31348898350589
 30
128.6101241719428
 10
5.363837458586798
 20
15.09240011212258
 30
128.2154743524871
 10
6.705535587215734
 20
14.54462460205766
 30
127.3435202250974
 10
7.376275621236967
 20
14.21969118314445
 30
126.8683575166984
 10
8.717189749026426
 20
13.43935245849619
 30
125.8620078625743
 10
9.387428463963618
 20
12.98575958612884
 30
125.332312111038
 10
10.72727951872968
 20
11.90276388287984
 30
124.2369775930633
 10
11.39700456164507
 20
11.27733049766108
 30
123.6725152190956
 10
12.40076741101317
 20
10.12498443728035
 30
122.8070717479867
 10
12.73530197750062
 20
9.703041483958154
 30
122.5143761042126
 10
13.40397752722794
 20
8.75601205521295
 30
121.9265050273375
 10
13.73808020100589
 20
8.230844193175617
 30
121.6300501910958
 10
14.23838753340014
 20
7.30755768168191
 30
121.1838045646638
 10
14.40499272193049
 20
6.975805076016118
 30
121.0342742430293
 10
14.73779939084932
 20
6.241563674155379
 30
120.7348224259141
 10
14.90387466334295
 20
5.842080319260769
 30
120.5854150346774
 10
15.23500992950882
 20
4.911444141218976
 30
120.2849498392297
 10
15.40034387809856
 20
4.395932652724648
 30
120.1353967536673
 10
15.64496064454439
 20
3.370341817780811
 30
119.9127759129321
 10
15.72613633703787
 20
2.988651522551826
 30
119.8384735315902
 10
15.84437569011735
 20
2.241609414588836
 30
119.7310600832838
 10
15.88321514344926
 20
1.96300976776669
 30
119.6953605977708
 10
15.93799988003138
 20
1.419334559741341
 30
119.6454264752277
 10
15.955708491447
 20
1.217665053912324
 30
119.6292958973057
 10
15.98625218949755
 20
0.7112149279230988
 30
119.6013425146457
 10
15.99949591049796
 20
0.4058165313605139
 30
119.5893268245355
 10
16.00094000504335
 20
-0.7306807432195643
 30
119.5875790808298
 10
15.95831318271106
 20
-1.202054954429535
 30
119.6261555309275
 10
15.88562815632579
 20
-1.937223600887479
 30
119.6923623603799
 10
15.84691331579954
 20
-2.218432537873032
 30
119.7280438166673
 10
15.72887126450713
 20
-2.973527472933454
 30
119.8357035901516
 10
15.64780580447294
 20
-3.357337595317047
 30
119.9101982772871
 10
15.40342161305002
 20
-4.387531431473099
 30
120.1330949393187
 10
15.23817928288582
 20
-4.903363524152836
 30
120.282585180951
 10
14.90726044798234
 20
-5.834464740678137
 30
120.5827161026191
 10
14.74128246212825
 20
-6.233641489277556
 30
120.7318041429056
 10
14.40868196707358
 20
-6.967795507190724
 30
121.0307995119792
 10
14.24217927202579
 20
-7.299535869287721
 30
121.1801206487913
 10
13.74217998832186
 20
-8.223137241992237
 30
121.6259461816479
 10
13.40828667377727
 20
-8.748961191907773
 30
121.9224148243767
 10
12.74002598310441
 20
-9.6971974548023
 30
122.5104656399856
 10
12.40569956110527
 20
-10.1194439524464
 30
122.8031461137559
 10
11.4021438458828
 20
-11.27254817534699
 30
123.6684575834804
 10
10.73241401235269
 20
-11.89783544046372
 30
124.2323917919785
 10
9.39256154569969
 20
-12.98176873448602
 30
125.3278802671984
 10
8.722323393518035
 20
-13.43614303439019
 30
125.858142982483
 10
7.381536254197798
 20
-14.21719130121121
 30
126.8648614629825
 10
6.710947627866249
 20
-14.54226566950476
 30
127.3400044653351
 10
5.369442399825107
 20
-15.09017510627999
 30
128.2116953500268
 10
4.698603514204547
 20
-15.31114576607056
 30
128.6058865077282
 10
2.685422377145444
 20
-15.83351796555597
 30
129.5981554835471
 10
1.342973804483333
 20
-15.99988147081469
 30
129.9997324670683
 10
0.0000000000000706
 20
-16.00000000000001
 30
130.0000000000002
  0
SPLINE
  5
1AC
330
1A0
100
AcDbEntity
  8
Predefinito
 62
     9
420
 12566463
100
AcDbSpline
 70
     0
 71
     3
 72
    32
 73
    28
 74
     0
 42
0.000000001
 43
0.0000000001
 40
0.0275099018187086
 40
0.0275099018187086
 40
0.0275099018187086
 40
0.0275099018187086
 40
0.0277220320267827
 40
0.0277220320267827
 40
0.0279369342600826
 40
0.0279369342600826
 40
0.0283667387266824
 40
0.0283667387266824
 40
0.0292263476598819
 40
0.0292263476598819
 40
0.0300859565930814
 40
0.0300859565930814
 40
0.0309455655262809
 40
0.0309455655262809
 40
0.03266478339268
 40
0.03266478339268
 40
0.0343840012590791
 40
0.0343840012590791
 40
0.0378230188173781
 40
0.0378230188173781
 40
0.0412620363756771
 40
0.0412620363756771
 40
0.0447010786644456
 40
0.0447010786644456
 40
0.048140120953214
 40
0.048140120953214
 40
0.0550185817647211
 40
0.0550185817647211
 40
0.0550185817647211
 40
0.0550185817647211
 10
-16.0
 20
0.0
 30
119.5887296655109
 10
-16.00009163381614
 20
0.7403725769015399
 30
119.5884914492314
 10
-15.95808460718625
 20
1.205953608428231
 30
119.6265340751929
 10
-15.88589540446701
 20
1.936463697058461
 30
119.6922872608267
 10
-15.84718927964787
 20
2.217503611599417
 30
119.7279372855494
 10
-15.72917301392856
 20
2.972223336212872
 30
119.8354964476754
 10
-15.64812797373158
 20
3.355828514144301
 30
119.9099150991214
 10
-15.40380786929517
 20
4.385780336312256
 30
120.1326587894174
 10
-15.23861147987911
 20
4.901717323620399
 30
120.2821123213238
 10
-14.90778337517071
 20
5.832969939882908
 30
120.5821947061286
 10
-14.74185033743567
 20
6.232240723314502
 30
120.7312777379501
 10
-14.40933958948899
 20
6.96651666366674
 30
121.0302516409519
 10
-14.24288147107447
 20
7.298283418378863
 30
121.1795543083265
 10
-13.74301498461534
 20
8.22189865538884
 30
121.6252958857617
 10
-13.40920944486564
 20
8.747632876784204
 30
121.9216611734722
 10
-12.74112397974683
 20
9.69568451634883
 30
122.5094715527581
 10
-12.40688541009195
 20
10.11787432099045
 30
122.8020426091259
 10
-11.40363129687694
 20
11.2709080225678
 30
123.6670971281796
 10
-10.73411675663284
 20
11.89642193900344
 30
124.2310894846664
 10
-9.39469326235477
 20
12.98046635336783
 30
125.3264476613495
 10
-8.724667594118621
 20
13.43454035203828
 30
125.8562591375427
 10
-7.384303734080766
 20
14.21512606794198
 30
126.862025562898
 10
-6.713927697487258
 20
14.54036441075009
 30
127.3370946196822
 10
-5.372858683113551
 20
15.08992721007452
 30
128.2111913576843
 10
-4.702240357585993
 20
15.31174378492812
 30
128.6070127994576
 10
-2.689709272726867
 20
15.83266878935573
 30
129.596566226528
 10
-1.347671327428743
 20
15.99836361442468
 30
129.9963068858637
 10
-0.0051257103695388
 20
15.99999917897153
 30
129.9999981468521
  0
ARC
  5
1AD
330
1A0
100
AcDbEntity
  8
Predefinito
 62
     9
420
 12566463
100
AcDbCircle
 10
0.0000000000000036
 20
0.0
 30
-7.999999999999998
 40
10.45
100
AcDbArc
 50
0.0
 51
180.0
  0
ARC
  5
1AE
330
1A0
100
AcDbEntity
  8
Predefinito
 62
     9
420
 12566463
100
AcDbCircle
 10
0.0000000000000044
 20
0.0
 30
-7.999999999999998
 40
10.45
100
AcDbArc
 50
180.0
 51
0.0
  0
ARC
  5
1AF
330
1A0
100
AcDbEntity
  8
Predefinito
 62
     9
420
 12566463
100
AcDbCircle
 10
0.0000000000000036
 20
0.0
 30
0.0
 40
10.45
100
AcDbArc
 50
0.0
 51
180.0
  0
ARC
  5
1B0
330
1A0
100
AcDbEntity
  8
Predefinito
 62
     9
420
 12566463
100
AcDbCircle
 10
0.0000000000000036
 20
0.0
 30
0.0
 40
10.45
100
AcDbArc
 50
180.0
 51
0.0
  0
LINE
  5
1B1
330
1A0
100
AcDbEntity
  8
Predefinito
 62
     9
420
 12566463
100
AcDbLine
 10
10.45
 20
0.0
 30
-7.999999999999997
 11
10.45
 21
0.0000000000000005
 31
-0.0000000000000003
  0
ARC
  5
1B2
330
1A0
100
AcDbEntity
  8
Predefinito
 62
     9
420
 12566463
100
AcDbCircle
 10
0.0000000000000044
 20
0.0
 30
-9.0
 40
9.45
100
AcDbArc
 50
0.0
 51
180.0
  0
ARC
  5
1B3
330
1A0
100
AcDbEntity
  8
Predefinito
 62
     9
420
 12566463
100
AcDbCircle
 10
0.0000000000000044
 20
0.0
 30
-9.0
 40
9.45
100
AcDbArc
 50
180.0
 51
0.0
  0
LINE
  5
1B4
330
1A0
100
AcDbEntity
  8
Predefinito
 62
     9
420
 12566463
100
AcDbLine
 10
9.450000000000005
 20
-0.0000000000000005
 30
-9.000000000000002
 11
10.45
 21
0.0
 31
-7.999999999999997
  0
ARC
  5
1B5
330
1A0
100
AcDbEntity
  8
Predefinito
 62
     9
420
 12566463
100
AcDbCircle
 10
0.000000000000004
 20
0.0000000000000004
 30
-9.0
 40
7.0
100
AcDbArc
 50
180.0
 51
270.0
  0
ARC
  5
1B6
330
1A0
100
AcDbEntity
  8
Predefinito
 62
     9
420
 12566463
100
AcDbCircle
 10
0.0000000000000036
 20
0.0
 30
-9.0
 40
7.0
100
AcDbArc
 50
90.0
 51
180.0
  0
ARC
  5
1B7
330
1A0
100
AcDbEntity
  8
Predefinito
 62
     9
420
 12566463
100
AcDbCircle
 10
0.0000000000000036
 20
0.0
 30
4.0
 40
7.0
100
AcDbArc
 50
0.000000000000007
 51
180.0
  0
ARC
  5
1B8
330
1A0
100
AcDbEntity
  8
Predefinito
 62
     9
420
 12566463
100
AcDbCircle
 10
0.0000000000000031
 20
0.0
 30
4.0
 40
7.0
100
AcDbArc
 50
180.0
 51
0.0
  0
LINE
  5
1B9
330
1A0
100
AcDbEntity
  8
Predefinito
 62
     9
420
 12566463
100
AcDbLine
 10
-6.999999999999997
 20
0.0000000000000003
 30
4.0
 11
-6.999999999999996
 21
0.0
 31
-9.000000000000004
  0
ARC
  5
1BA
330
1A0
100
AcDbEntity
  8
Predefinito
 62
     9
420
 12566463
100
AcDbCircle
 10
0.0000000000000036
 20
0.0
 30
-9.0
 40
7.0
100
AcDbArc
 50
270.0
 51
90.0
  0
LINE
  5
1BB
330
1A0
100
AcDbEntity
  8
Predefinito
 62
     9
420
 12566463
100
AcDbLine
 10
-13.49999999999999
 20
0.0
 30
4.0
 11
-6.999999999999996
 21
0.0
 31
4.0
  0
LINE
  5
1BC
330
1A0
100
AcDbEntity
  8
Predefinito
 62
     9
420
 12566463
100
AcDbLine
 10
7.000000000000005
 20
0.0
 30
4.0
 11
13.5
 21
0.0
 31
4.0
  0
LINE
  5
1BD
330
1A0
100
AcDbEntity
  8
Predefinito
 62
     9
420
 12566463
100
AcDbLine
 10
0.0000000000000035
 20
-13.5
 30
4.0
 11
0.0000000000000035
 21
-7.0
 31
4.0
  0
LINE
  5
1BE
330
1A0
100
AcDbEntity
  8
Predefinito
 62
     9
420
 12566463
100
AcDbLine
 10
0.0000000000000035
 20
7.000000000000002
 30
4.0
 11
0.0000000000000035
 21
13.5
 31
4.0
  0
LINE
  5
1BF
330
1A0
100
AcDbEntity
  8
Predefinito
 62
     9
420
 12566463
100
AcDbLine
 10
-9.449999999999996
 20
-0.0000000000000009
 30
-9.0
 11
-6.999999999999996
 21
-0.0000000000000009
 31
-9.0
  0
LINE
  5
1C0
330
1A0
100
AcDbEntity
  8
Predefinito
 62
     9
420
 12566463
100
AcDbLine
 10
7.000000000000005
 20
-0.0000000000000009
 30
-9.0
 11
9.450000000000005
 21
-0.0000000000000009
 31
-9.0
  0
LINE
  5
1C1
330
1A0
100
AcDbEntity
  8
Predefinito
 62
     9
420
 12566463
100
AcDbLine
 10
0.0000000000000026
 20
-9.45
 30
-9.0
 11
0.0000000000000026
 21
-7.0
 31
-9.0
  0
LINE
  5
1C2
330
1A0
100
AcDbEntity
  8
Predefinito
 62
     9
420
 12566463
100
AcDbLine
 10
0.0000000000000026
 20
6.999999999999998
 30
-9.0
 11
0.0000000000000026
 21
9.449999999999996
 31
-9.0
  0
CIRCLE
  5
1C3
330
1A0
100
AcDbEntity
  8
Predefinito
 62
     9
420
 12566463
100
AcDbCircle
 10
0.0
 20
0.0
 30
65.03795492842437
 40
13.5
  0
LINE
  5
1C4
330
1A0
100
AcDbEntity
  8
Predefinito
 62
     9
420
 12566463
100
AcDbLine
 10
0.0
 20
13.5
 30
125.9531963856011
 11
0.0
 21
13.5
 31
4.000000000000002
  0
LINE
  5
1C5
330
1A0
100
AcDbEntity
  8
Predefinito
 62
     9
420
 12566463
100
AcDbLine
 10
13.5
 20
0.0
 30
119.5886857693257
 11
13.5
 21
0.0
 31
4.000000000000002
  0
LINE
  5
1C6
330
1A0
100
AcDbEntity
  8
Predefinito
 62
     9
420
 12566463
100
AcDbLine
 10
0.0
 20
-13.5
 30
125.9531937135836
 11
0.0
 21
-13.5
 31
4.000000000000002
  0
CIRCLE
  5
1C7
330
1A0
100
AcDbEntity
  8
Predefinito
 62
     9
420
 12566463
100
AcDbCircle
 10
0.0000000000000033
 20
0.0
 30
65.07446001990684
 40
16.0
  0
LINE
  5
1C8
330
1A0
100
AcDbEntity
  8
Predefinito
 62
     9
420
 12566463
100
AcDbLine
 10
0.0000000000000033
 20
16.0
 30
130.0000113295172
 11
0.0000000000000033
 21
16.0
 31
-0.0000000000000107
  0
LINE
  5
1C9
330
1A0
100
AcDbEntity
  8
Predefinito
 62
     9
420
 12566463
100
AcDbLine
 10
16.0
 20
0.0
 30
119.5886425766579
 11
16.0
 21
0.0
 31
-0.0000000000000107
  0
LINE
  5
1CA
330
1A0
100
AcDbEntity
  8
Predefinito
 62
     9
420
 12566463
100
AcDbLine
 10
0.0000000000000033
 20
-16.0
 30
130.0000000000002
 11
0.0000000000000033
 21
-16.0
 31
-0.0000000000000107
  0
LINE
  5
1CB
330
1A0
100
AcDbEntity
  8
Predefinito
 62
     9
420
 12566463
100
AcDbLine
 10
16.0
 20
0.0000000000000018
 30
0.0
 11
10.45
 21
0.0000000000000018
 31
0.0
  0
LINE
  5
1CC
330
1A0
100
AcDbEntity
  8
Predefinito
 62
     9
420
 12566463
100
AcDbLine
 10
-10.45
 20
0.0000000000000018
 30
0.0
 11
-16.0
 21
0.0000000000000018
 31
0.0
  0
LINE
  5
1CD
330
1A0
100
AcDbEntity
  8
Predefinito
 62
     9
420
 12566463
100
AcDbLine
 10
0.0000000000000015
 20
-16.0
 30
0.0
 11
0.0000000000000015
 21
-10.45
 31
0.0
  0
LINE
  5
1CE
330
1A0
100
AcDbEntity
  8
Predefinito
 62
     9
420
 12566463
100
AcDbLine
 10
0.0000000000000015
 20
10.45
 30
0.0
 11
0.0000000000000015
 21
16.0
 31
0.0
  0
ARC
  5
1CF
330
1A0
100
AcDbEntity
  8
Predefinito
 62
     9
420
 12566463
100
AcDbCircle
 10
0.0
 20
137.088723439379
 30
-0.0002018382578513
 40
17.5
210
1.0
220
0.0
230
0.0
100
AcDbArc
 50
320.4823524614893
 51
336.1045272450082
  0
ARC
  5
1D0
330
1A0
100
AcDbEntity
  8
Predefinito
 62
     9
420
 12566463
100
AcDbCircle
 10
0.0
 20
137.088723439379
 30
-0.0002018382578513
 40
17.5
210
1.0
220
0.0
230
0.0
100
AcDbArc
 50
203.8955080528617
 51
219.5176592635608
  0
LINE
  5
1D1
330
1A0
100
AcDbEntity
  8
Predefinito
 62
     9
420
 12566463
100
AcDbLine
 10
15.9999905001089
 20
0.0
 30
119.588723439379
 11
13.5000267429819
 21
0.0
 31
119.588723439379
  0
LINE
  5
1D2
330
1A0
100
AcDbEntity
  8
Predefinito
 62
     9
420
 12566463
100
AcDbLine
 10
-13.49999999999998
 20
0.0
 30
119.588723439379
 11
-15.99999546381374
 21
0.0
 31
119.588723439379
  0
CIRCLE
  5
1D3
330
1A0
100
AcDbEntity
  8
Predefinito
 62
     9
420
 12566463
100
AcDbCircle
 10
0.0000000000000035
 20
0.0
 30
-4.0
 40
10.45
  0
LINE
  5
1D4
330
1A0
100
AcDbEntity
  8
Predefinito
 62
     9
420
 12566463
100
AcDbLine
 10
0.0000000000000035
 20
10.45
 30
-8.0
 11
0.0000000000000035
 21
10.45
 31
0.0000000000000001
  0
LINE
  5
1D5
330
1A0
100
AcDbEntity
  8
Predefinito
 62
     9
420
 12566463
100
AcDbLine
 10
-10.45
 20
0.0
 30
-8.0
 11
-10.45
 21
0.0
 31
0.0000000000000001
  0
LINE
  5
1D6
330
1A0
100
AcDbEntity
  8
Predefinito
 62
     9
420
 12566463
100
AcDbLine
 10
0.0000000000000035
 20
-10.45
 30
-8.0
 11
0.0000000000000035
 21
-10.45
 31
0.0000000000000001
  0
LINE
  5
1D7
330
1A0
100
AcDbEntity
  8
Predefinito
 62
     9
420
 12566463
100
AcDbLine
 10
0.0000000000000035
 20
9.45
 30
-9.000000000000002
 11
0.0000000000000035
 21
10.45
 31
-8.0
  0
LINE
  5
1D8
330
1A0
100
AcDbEntity
  8
Predefinito
 62
     9
420
 12566463
100
AcDbLine
 10
-9.449999999999998
 20
0.0
 30
-9.000000000000002
 11
-10.45
 21
0.0
 31
-8.0
  0
LINE
  5
1D9
330
1A0
100
AcDbEntity
  8
Predefinito
 62
     9
420
 12566463
100
AcDbLine
 10
0.0000000000000035
 20
-9.45
 30
-9.000000000000002
 11
0.0000000000000035
 21
-10.45
 31
-7.999999999999999
  0
CIRCLE
  5
1DA
330
1A0
100
AcDbEntity
  8
Predefinito
 62
     9
420
 12566463
100
AcDbCircle
 10
0.0000000000000035
 20
0.0
 30
-2.5
 40
7.0
  0
LINE
  5
1DB
330
1A0
100
AcDbEntity
  8
Predefinito
 62
     9
420
 12566463
100
AcDbLine
 10
0.0000000000000035
 20
7.0
 30
3.999999999999999
 11
0.0000000000000035
 21
7.0
 31
-9.000000000000004
  0
LINE
  5
1DC
330
1A0
100
AcDbEntity
  8
Predefinito
 62
     9
420
 12566463
100
AcDbLine
 10
7.000000000000004
 20
0.0
 30
3.999999999999999
 11
7.000000000000004
 21
0.0
 31
-9.000000000000004
  0
LINE
  5
1DD
330
1A0
100
AcDbEntity
  8
Predefinito
 62
     9
420
 12566463
100
AcDbLine
 10
0.0000000000000035
 20
-7.0
 30
3.999999999999999
 11
0.0000000000000035
 21
-7.0
 31
-9.000000000000004
  0
ENDBLK
  5
1DF
330
1A0
100
AcDbEntity
  8
0
100
AcDbBlockEnd
  0
BLOCK
  5
1EF
330
1E1
100
AcDbEntity
  8
0
100
AcDbBlockBegin
  2
10TP01960YY
 70
     0
 10
0.0
 20
0.0
 30
0.0
  3
10TP01960YY
  1
10TP01960YY
  0
ARC
  5
1E2
330
1E1
100
AcDbEntity
  8
Predefinito
 62
     9
420
 12566463
100
AcDbCircle
 10
0.0
 20
0.0
 30
-1.5
 40
17.5
100
AcDbArc
 50
0.0
 51
180.0
  0
ARC
  5
1E3
330
1E1
100
AcDbEntity
  8
Predefinito
 62
     9
420
 12566463
100
AcDbCircle
 10
0.0
 20
0.0
 30
-1.5
 40
17.5
100
AcDbArc
 50
180.0
 51
0.0
  0
ARC
  5
1E4
330
1E1
100
AcDbEntity
  8
Predefinito
 62
     9
420
 12566463
100
AcDbCircle
 10
0.0
 20
0.0
 30
0.0
 40
17.5
100
AcDbArc
 50
180.0
 51
0.0
  0
ARC
  5
1E5
330
1E1
100
AcDbEntity
  8
Predefinito
 62
     9
420
 12566463
100
AcDbCircle
 10
0.0
 20
0.0
 30
0.0
 40
17.5
100
AcDbArc
 50
0.0
 51
180.0
  0
LINE
  5
1E6
330
1E1
100
AcDbEntity
  8
Predefinito
 62
     9
420
 12566463
100
AcDbLine
 10
17.5
 20
-0.0000000000000009
 30
-1.5
 11
17.5
 21
-0.0000000000000009
 31
0.0000000000000001
  0
LINE
  5
1E7
330
1E1
100
AcDbEntity
  8
Predefinito
 62
     9
420
 12566463
100
AcDbLine
 10
-17.5
 20
0.0
 30
0.0
 11
17.5
 21
0.0
 31
0.0
  0
LINE
  5
1E8
330
1E1
100
AcDbEntity
  8
Predefinito
 62
     9
420
 12566463
100
AcDbLine
 10
0.0
 20
-17.5
 30
0.0
 11
0.0
 21
17.5
 31
0.0
  0
CIRCLE
  5
1E9
330
1E1
100
AcDbEntity
  8
Predefinito
 62
     9
420
 12566463
100
AcDbCircle
 10
0.0
 20
0.0
 30
-0.75
 40
17.5
  0
LINE
  5
1EA
330
1E1
100
AcDbEntity
  8
Predefinito
 62
     9
420
 12566463
100
AcDbLine
 10
0.0
 20
17.5
 30
-1.5
 11
0.0
 21
17.5
 31
0.0
  0
LINE
  5
1EB
330
1E1
100
AcDbEntity
  8
Predefinito
 62
     9
420
 12566463
100
AcDbLine
 10
-17.5
 20
0.0
 30
-1.5
 11
-17.5
 21
0.0
 31
0.0
  0
LINE
  5
1EC
330
1E1
100
AcDbEntity
  8
Predefinito
 62
     9
420
 12566463
100
AcDbLine
 10
0.0
 20
-17.5
 30
-1.5
 11
0.0
 21
-17.5
 31
0.0
  0
LINE
  5
1ED
330
1E1
100
AcDbEntity
  8
Predefinito
 62
     9
420
 12566463
100
AcDbLine
 10
17.5
 20
0.0
 30
-1.5
 11
-17.5
 21
0.0
 31
-1.5
  0
LINE
  5
1EE
330
1E1
100
AcDbEntity
  8
Predefinito
 62
     9
420
 12566463
100
AcDbLine
 10
0.0000000000000036
 20
-17.5
 30
-1.5
 11
0.0000000000000036
 21
17.5
 31
-1.5
  0
ENDBLK
  5
1F0
330
1E1
100
AcDbEntity
  8
0
100
AcDbBlockEnd
  0
ENDSEC
  0
SECTION
  2
ENTITIES
  0
INSERT
  5
1F7
330
1F
100
AcDbEntity
  8
Predefinito
100
AcDbBlockReference
  2
3100BR01-00
 10
0.0
 20
0.0
 30
0.0
  0
ENDSEC
  0
SECTION
  2
OBJECTS
  0
DICTIONARY
  5
C
330
0
100
AcDbDictionary
281
     1
  3
ACAD_DETAILVIEWSTYLE
350
233
  3
ACAD_GROUP
350
D
  3
ACAD_LAYOUT
350
1A
  3
ACAD_MATERIAL
350
43
  3
ACAD_MLEADERSTYLE
350
232
  3
ACAD_MLINESTYLE
350
17
  3
ACAD_PLOTSETTINGS
350
19
  3
ACAD_PLOTSTYLENAME
350
E
  3
ACAD_SCALELIST
350
47
  3
ACAD_SECTIONVIEWSTYLE
350
234
  3
ACAD_TABLESTYLE
350
231
  3
ACAD_VISUALSTYLE
350
2A
  3
AcDbVariableDictionary
350
1F8
  0
DICTIONARY
  5
233
102
{ACAD_REACTORS
330
C
102
}
330
C
100
AcDbDictionary
281
     1
  0
DICTIONARY
  5
D
102
{ACAD_REACTORS
330
C
102
}
330
C
100
AcDbDictionary
281
     1
  0
DICTIONARY
  5
1A
102
{ACAD_REACTORS
330
C
102
}
330
C
100
AcDbDictionary
281
     1
  3
Layout1
350
1E
  3
Layout2
350
26
  3
Model
350
22
  0
DICTIONARY
  5
43
102
{ACAD_REACTORS
330
C
102
}
330
C
100
AcDbDictionary
281
     1
  3
ByBlock
350
45
  3
ByLayer
350
44
  3
Global
350
46
  0
DICTIONARY
  5
232
102
{ACAD_REACTORS
330
C
102
}
330
C
100
AcDbDictionary
281
     1
  0
DICTIONARY
  5
17
102
{ACAD_REACTORS
330
C
102
}
330
C
100
AcDbDictionary
281
     1
  3
Standard
350
18
  0
DICTIONARY
  5
19
102
{ACAD_REACTORS
330
C
102
}
330
C
100
AcDbDictionary
281
     1
  0
ACDBDICTIONARYWDFLT
  5
E
102
{ACAD_REACTORS
330
C
102
}
330
C
100
AcDbDictionary
281
     1
  3
Normal
350
F
100
AcDbDictionaryWithDefault
340
F
  0
DICTIONARY
  5
47
102
{ACAD_REACTORS
330
C
102
}
330
C
100
AcDbDictionary
281
     1
  3
A0
350
48
  3
A1
350
49
  3
A2
350
4A
  3
A3
350
4B
  3
A4
350
4C
  3
A5
350
4D
  3
A6
350
4E
  3
A7
350
4F
  3
A8
350
50
  3
A9
350
51
  3
B0
350
52
  3
B1
350
53
  3
B2
350
54
  3
B3
350
55
  3
B4
350
56
  3
B5
350
57
  3
B6
350
58
  3
B7
350
59
  3
B8
350
5A
  3
B9
350
5B
  3
C0
350
5C
  3
C1
350
5D
  3
C2
350
5E
  3
C3
350
5F
  3
C4
350
60
  3
C5
350
61
  3
C6
350
62
  3
C7
350
63
  3
C8
350
64
  3
C9
350
65
  3
D0
350
66
  3
D1
350
67
  3
D2
350
68
  0
DICTIONARY
  5
234
102
{ACAD_REACTORS
330
C
102
}
330
C
100
AcDbDictionary
281
     1
  0
DICTIONARY
  5
231
102
{ACAD_REACTORS
330
C
102
}
330
C
100
AcDbDictionary
281
     1
  0
DICTIONARY
  5
2A
102
{ACAD_REACTORS
330
C
102
}
330
C
100
AcDbDictionary
281
     1
  3
2dWireframe
350
2F
  3
Basic
350
32
  3
Brighten
350
36
  3
ColorChange
350
3A
  3
Conceptual
350
34
  3
Dim
350
35
  3
EdgeColorOff
350
3D
  3
Facepattern
350
39
  3
Flat
350
2B
  3
FlatWithEdges
350
2C
  3
Gouraud
350
2D
  3
GouraudWithEdges
350
2E
  3
Hidden
350
31
  3
JitterOff
350
3B
  3
Linepattern
350
38
  3
OverhangOff
350
3C
  3
Realistic
350
33
  3
Shaded
350
42
  3
Shaded with edges
350
41
  3
Shades of Gray
350
3E
  3
Sketchy
350
3F
  3
Thicken
350
37
  3
Wireframe
350
30
  3
X-Ray
350
40
  0
DICTIONARY
  5
1F8
102
{ACAD_REACTORS
330
C
102
}
330
C
100
AcDbDictionary
281
     1
  3
CANNOSCALE
350
1F9
  3
MSLTSCALE
350
1FA
  0
LAYOUT
  5
1E
102
{ACAD_REACTORS
330
1A
102
}
330
1A
100
AcDbPlotSettings
  1

  2
none_device
  4

  6

 40
0.0
 41
0.0
 42
0.0
 43
0.0
 44
0.0
 45
0.0
 46
0.0
 47
0.0
 48
0.0
 49
0.0
140
0.0
141
0.0
142
1.0
143
1.0
 70
   688
 72
     0
 73
     0
 74
     5
  7

 75
    16
 76
     0
 77
     2
 78
   300
147
1.0
148
0.0
149
0.0
100
AcDbLayout
  1
Layout1
 70
     1
 71
     1
 10
0.0
 20
0.0
 11
12.0
 21
9.0
 12
0.0
 22
0.0
 32
0.0
 14
1.000000000000000E+20
 24
1.000000000000000E+20
 34
1.000000000000000E+20
 15
-1.000000000000000E+20
 25
-1.000000000000000E+20
 35
-1.000000000000000E+20
146
0.0
 13
0.0
 23
0.0
 33
0.0
 16
1.0
 26
0.0
 36
0.0
 17
0.0
 27
1.0
 37
0.0
 76
     0
330
1B
  0
LAYOUT
  5
26
102
{ACAD_REACTORS
330
1A
102
}
330
1A
100
AcDbPlotSettings
  1

  2
none_device
  4

  6

 40
0.0
 41
0.0
 42
0.0
 43
0.0
 44
0.0
 45
0.0
 46
0.0
 47
0.0
 48
0.0
 49
0.0
140
0.0
141
0.0
142
1.0
143
1.0
 70
   688
 72
     0
 73
     0
 74
     5
  7

 75
    16
 76
     0
 77
     2
 78
   300
147
1.0
148
0.0
149
0.0
100
AcDbLayout
  1
Layout2
 70
     1
 71
     2
 10
0.0
 20
0.0
 11
0.0
 21
0.0
 12
0.0
 22
0.0
 32
0.0
 14
0.0
 24
0.0
 34
0.0
 15
0.0
 25
0.0
 35
0.0
146
0.0
 13
0.0
 23
0.0
 33
0.0
 16
1.0
 26
0.0
 36
0.0
 17
0.0
 27
1.0
 37
0.0
 76
     0
330
23
  0
LAYOUT
  5
22
102
{ACAD_REACTORS
330
1A
102
}
330
1A
100
AcDbPlotSettings
  1

  2
none_device
  4
Letter_(8.50_x_11.00_Inches)
  6

 40
6.35
 41
6.35
 42
6.35000508
 43
6.35000508
 44
215.9
 45
279.4
 46
0.0
 47
0.0
 48
0.0
 49
0.0
140
0.0
141
0.0
142
1.0
143
1.0
 70
  1712
 72
     0
 73
     0
 74
     0
  7

 75
     0
 76
     0
 77
     2
 78
   300
147
1.0
148
0.0
149
0.0
100
AcDbLayout
  1
Model
 70
     1
 71
     0
 10
0.0
 20
0.0
 11
12.0
 21
9.0
 12
0.0
 22
0.0
 32
0.0
 14
-23.00000000000001
 24
-35.00000000000002
 34
-146.088723439379
 15
452.5
 25
34.99999999999999
 35
35.0
146
0.0
 13
0.0
 23
0.0
 33
0.0
 16
1.0
 26
0.0
 36
0.0
 17
0.0
 27
1.0
 37
0.0
 76
     0
330
1F
331
29
  0
MATERIAL
  5
45
102
{ACAD_REACTORS
330
43
102
}
102
{ACAD_XDICTIONARY
360
22D
102
}
330
43
100
AcDbMaterial
  1
ByBlock
  0
MATERIAL
  5
44
102
{ACAD_REACTORS
330
43
102
}
102
{ACAD_XDICTIONARY
360
22B
102
}
330
43
100
AcDbMaterial
  1
ByLayer
  0
MATERIAL
  5
46
102
{ACAD_REACTORS
330
43
102
}
102
{ACAD_XDICTIONARY
360
22F
102
}
330
43
100
AcDbMaterial
  1
Global
  0
MLINESTYLE
  5
18
102
{ACAD_REACTORS
330
17
102
}
330
17
100
AcDbMlineStyle
  2
Standard
 70
     0
  3

 62
   256
 51
90.0
 52
90.0
 71
     2
 49
0.5
 62
   256
  6
BYLAYER
 49
-0.5
 62
   256
  6
BYLAYER
  0
ACDBPLACEHOLDER
  5
F
102
{ACAD_REACTORS
330
E
102
}
330
E
  0
SCALE
  5
48
102
{ACAD_REACTORS
330
47
102
}
330
47
100
AcDbScale
 70
     0
300
1:1
140
1.0
141
1.0
290
     1
  0
SCALE
  5
49
102
{ACAD_REACTORS
330
47
102
}
330
47
100
AcDbScale
 70
     0
300
1:2
140
1.0
141
2.0
290
     0
  0
SCALE
  5
4A
102
{ACAD_REACTORS
330
47
102
}
330
47
100
AcDbScale
 70
     0
300
1:4
140
1.0
141
4.0
290
     0
  0
SCALE
  5
4B
102
{ACAD_REACTORS
330
47
102
}
330
47
100
AcDbScale
 70
     0
300
1:5
140
1.0
141
5.0
290
     0
  0
SCALE
  5
4C
102
{ACAD_REACTORS
330
47
102
}
330
47
100
AcDbScale
 70
     0
300
1:8
140
1.0
141
8.0
290
     0
  0
SCALE
  5
4D
102
{ACAD_REACTORS
330
47
102
}
330
47
100
AcDbScale
 70
     0
300
1:10
140
1.0
141
10.0
290
     0
  0
SCALE
  5
4E
102
{ACAD_REACTORS
330
47
102
}
330
47
100
AcDbScale
 70
     0
300
1:16
140
1.0
141
16.0
290
     0
  0
SCALE
  5
4F
102
{ACAD_REACTORS
330
47
102
}
330
47
100
AcDbScale
 70
     0
300
1:20
140
1.0
141
20.0
290
     0
  0
SCALE
  5
50
102
{ACAD_REACTORS
330
47
102
}
330
47
100
AcDbScale
 70
     0
300
1:30
140
1.0
141
30.0
290
     0
  0
SCALE
  5
51
102
{ACAD_REACTORS
330
47
102
}
330
47
100
AcDbScale
 70
     0
300
1:40
140
1.0
141
40.0
290
     0
  0
SCALE
  5
52
102
{ACAD_REACTORS
330
47
102
}
330
47
100
AcDbScale
 70
     0
300
1:50
140
1.0
141
50.0
290
     0
  0
SCALE
  5
53
102
{ACAD_REACTORS
330
47
102
}
330
47
100
AcDbScale
 70
     0
300
1:100
140
1.0
141
100.0
290
     0
  0
SCALE
  5
54
102
{ACAD_REACTORS
330
47
102
}
330
47
100
AcDbScale
 70
     0
300
2:1
140
2.0
141
1.0
290
     0
  0
SCALE
  5
55
102
{ACAD_REACTORS
330
47
102
}
330
47
100
AcDbScale
 70
     0
300
4:1
140
4.0
141
1.0
290
     0
  0
SCALE
  5
56
102
{ACAD_REACTORS
330
47
102
}
330
47
100
AcDbScale
 70
     0
300
8:1
140
8.0
141
1.0
290
     0
  0
SCALE
  5
57
102
{ACAD_REACTORS
330
47
102
}
330
47
100
AcDbScale
 70
     0
300
10:1
140
10.0
141
1.0
290
     0
  0
SCALE
  5
58
102
{ACAD_REACTORS
330
47
102
}
330
47
100
AcDbScale
 70
     0
300
100:1
140
100.0
141
1.0
290
     0
  0
SCALE
  5
59
102
{ACAD_REACTORS
330
47
102
}
330
47
100
AcDbScale
 70
     0
300
1/128" = 1'-0"
140
0.0078125
141
12.0
290
     0
  0
SCALE
  5
5A
102
{ACAD_REACTORS
330
47
102
}
330
47
100
AcDbScale
 70
     0
300
1/64" = 1'-0"
140
0.015625
141
12.0
290
     0
  0
SCALE
  5
5B
102
{ACAD_REACTORS
330
47
102
}
330
47
100
AcDbScale
 70
     0
300
1/32" = 1'-0"
140
0.03125
141
12.0
290
     0
  0
SCALE
  5
5C
102
{ACAD_REACTORS
330
47
102
}
330
47
100
AcDbScale
 70
     0
300
1/16" = 1'-0"
140
0.0625
141
12.0
290
     0
  0
SCALE
  5
5D
102
{ACAD_REACTORS
330
47
102
}
330
47
100
AcDbScale
 70
     0
300
3/32" = 1'-0"
140
0.09375
141
12.0
290
     0
  0
SCALE
  5
5E
102
{ACAD_REACTORS
330
47
102
}
330
47
100
AcDbScale
 70
     0
300
1/8" = 1'-0"
140
0.125
141
12.0
290
     0
  0
SCALE
  5
5F
102
{ACAD_REACTORS
330
47
102
}
330
47
100
AcDbScale
 70
     0
300
3/16" = 1'-0"
140
0.1875
141
12.0
290
     0
  0
SCALE
  5
60
102
{ACAD_REACTORS
330
47
102
}
330
47
100
AcDbScale
 70
     0
300
1/4" = 1'-0"
140
0.25
141
12.0
290
     0
  0
SCALE
  5
61
102
{ACAD_REACTORS
330
47
102
}
330
47
100
AcDbScale
 70
     0
300
3/8" = 1'-0"
140
0.375
141
12.0
290
     0
  0
SCALE
  5
62
102
{ACAD_REACTORS
330
47
102
}
330
47
100
AcDbScale
 70
     0
300
1/2" = 1'-0"
140
0.5
141
12.0
290
     0
  0
SCALE
  5
63
102
{ACAD_REACTORS
330
47
102
}
330
47
100
AcDbScale
 70
     0
300
3/4" = 1'-0"
140
0.75
141
12.0
290
     0
  0
SCALE
  5
64
102
{ACAD_REACTORS
330
47
102
}
330
47
100
AcDbScale
 70
     0
300
1" = 1'-0"
140
1.0
141
12.0
290
     0
  0
SCALE
  5
65
102
{ACAD_REACTORS
330
47
102
}
330
47
100
AcDbScale
 70
     0
300
1-1/2" = 1'-0"
140
1.5
141
12.0
290
     0
  0
SCALE
  5
66
102
{ACAD_REACTORS
330
47
102
}
330
47
100
AcDbScale
 70
     0
300
3" = 1'-0"
140
3.0
141
12.0
290
     0
  0
SCALE
  5
67
102
{ACAD_REACTORS
330
47
102
}
330
47
100
AcDbScale
 70
     0
300
6" = 1'-0"
140
6.0
141
12.0
290
     0
  0
SCALE
  5
68
102
{ACAD_REACTORS
330
47
102
}
330
47
100
AcDbScale
 70
     0
300
1'-0" = 1'-0"
140
12.0
141
12.0
290
     0
  0
VISUALSTYLE
  5
2F
102
{ACAD_REACTORS
330
2A
102
}
102
{ACAD_XDICTIONARY
360
203
102
}
330
2A
100
AcDbVisualStyle
  2
2dWireframe
 70
     4
 71
     0
 72
     2
 73
     0
 90
        0
 40
0.6
 41
30.0
 62
     5
 63
     7
421
 16777215
 74
     1
 91
        4
 64
     7
 65
   257
 75
     1
175
     1
 42
1.0
 92
        0
 66
   257
 43
1.0
 76
     1
 77
     6
 78
     2
 67
     7
 79
     5
170
     0
171
     0
290
     0
174
     0
 93
        1
 44
0.0
173
     0
291
     0
 45
0.0
1001
ACAD
1000
AcDbSavedByObjectVersion
1070
     0
  0
VISUALSTYLE
  5
32
102
{ACAD_REACTORS
330
2A
102
}
102
{ACAD_XDICTIONARY
360
209
102
}
330
2A
100
AcDbVisualStyle
  2
Basic
 70
     7
 71
     1
 72
     0
 73
     1
 90
        0
 40
0.6
 41
30.0
 62
     5
 63
     7
421
 16777215
 74
     0
 91
        4
 64
     7
 65
   257
 75
     1
175
     1
 42
1.0
 92
        8
 66
     7
 43
1.0
 76
     1
 77
     6
 78
     2
 67
     7
 79
     5
170
     0
171
     0
290
     0
174
     0
 93
        1
 44
0.0
173
     0
291
     1
 45
0.0
1001
ACAD
1000
AcDbSavedByObjectVersion
1070
     0
  0
VISUALSTYLE
  5
36
102
{ACAD_REACTORS
330
2A
102
}
102
{ACAD_XDICTIONARY
360
211
102
}
330
2A
100
AcDbVisualStyle
  2
Brighten
 70
    12
 71
     2
 72
     2
 73
     0
 90
        0
 40
0.6
 41
30.0
 62
     5
 63
     7
421
 16777215
 74
     1
 91
        4
 64
     7
 65
   257
 75
     1
175
     1
 42
1.0
 92
        8
 66
     7
 43
1.0
 76
     1
 77
     6
 78
     2
 67
     7
 79
     5
170
     0
171
     0
290
     0
174
     0
 93
        1
 44
50.0
173
     0
291
     1
 45
0.0
1001
ACAD
1000
AcDbSavedByObjectVersion
1070
     0
  0
VISUALSTYLE
  5
3A
102
{ACAD_REACTORS
330
2A
102
}
102
{ACAD_XDICTIONARY
360
219
102
}
330
2A
100
AcDbVisualStyle
  2
ColorChange
 70
    16
 71
     2
 72
     2
 73
     3
 90
        0
 40
0.6
 41
30.0
 62
     5
 63
     8
421
  8421504
 74
     1
 91
        4
 64
     7
 65
   257
 75
     1
175
     1
 42
1.0
 92
        8
 66
     8
424
  8421504
 43
1.0
 76
     1
 77
     6
 78
     2
 67
     7
 79
     5
170
     0
171
     0
290
     0
174
     0
 93
        1
 44
0.0
173
     0
291
     1
 45
0.0
1001
ACAD
1000
AcDbSavedByObjectVersion
1070
     0
  0
VISUALSTYLE
  5
34
102
{ACAD_REACTORS
330
2A
102
}
102
{ACAD_XDICTIONARY
360
20D
102
}
330
2A
100
AcDbVisualStyle
  2
Conceptual
 70
     9
 71
     3
 72
     2
 73
     0
 90
        0
 40
0.6
 41
30.0
 62
     5
 63
     7
421
 16777215
 74
     2
 91
        2
 64
     7
 65
   257
 75
     1
175
     1
 42
179.0
 92
        8
 66
     7
 43
1.0
 76
     1
 77
     6
 78
     2
 67
     7
 79
     3
170
     0
171
     0
290
     0
174
     0
 93
        1
 44
0.0
173
     0
291
     0
 45
0.0
1001
ACAD
1000
AcDbSavedByObjectVersion
1070
     0
  0
VISUALSTYLE
  5
35
102
{ACAD_REACTORS
330
2A
102
}
102
{ACAD_XDICTIONARY
360
20F
102
}
330
2A
100
AcDbVisualStyle
  2
Dim
 70
    11
 71
     2
 72
     2
 73
     0
 90
        0
 40
0.6
 41
30.0
 62
     5
 63
     7
421
 16777215
 74
     1
 91
        4
 64
     7
 65
   257
 75
     1
175
     1
 42
1.0
 92
        8
 66
     7
 43
1.0
 76
     1
 77
     6
 78
     2
 67
     7
 79
     5
170
     0
171
     0
290
     0
174
     0
 93
        1
 44
-50.0
173
     0
291
     1
 45
0.0
1001
ACAD
1000
AcDbSavedByObjectVersion
1070
     0
  0
VISUALSTYLE
  5
3D
102
{ACAD_REACTORS
330
2A
102
}
102
{ACAD_XDICTIONARY
360
21F
102
}
330
2A
100
AcDbVisualStyle
  2
EdgeColorOff
 70
    22
 71
     2
 72
     2
 73
     0
 90
        0
 40
0.6
 41
30.0
 62
     5
 63
     7
421
 16777215
 74
     1
 91
        4
 64
     7
 65
   257
 75
     1
175
     1
 42
1.0
 92
        8
 66
     7
 43
1.0
 76
     1
 77
     6
 78
     2
 67
     7
 79
     5
170
     0
171
     0
290
     0
174
     0
 93
        1
 44
0.0
173
     0
291
     1
 45
0.0
1001
ACAD
1000
AcDbSavedByObjectVersion
1070
     0
  0
VISUALSTYLE
  5
39
102
{ACAD_REACTORS
330
2A
102
}
102
{ACAD_XDICTIONARY
360
217
102
}
330
2A
100
AcDbVisualStyle
  2
Facepattern
 70
    15
 71
     2
 72
     2
 73
     0
 90
        0
 40
0.6
 41
30.0
 62
     5
 63
     7
421
 16777215
 74
     1
 91
        4
 64
     7
 65
   257
 75
     1
175
     1
 42
1.0
 92
        8
 66
     7
 43
1.0
 76
     1
 77
     6
 78
     2
 67
     7
 79
     5
170
     0
171
     0
290
     0
174
     0
 93
        1
 44
0.0
173
     0
291
     1
 45
0.0
1001
ACAD
1000
AcDbSavedByObjectVersion
1070
     0
  0
VISUALSTYLE
  5
2B
102
{ACAD_REACTORS
330
2A
102
}
102
{ACAD_XDICTIONARY
360
1FB
102
}
330
2A
100
AcDbVisualStyle
  2
Flat
 70
     0
 71
     2
 72
     1
 73
     1
 90
        2
 40
0.6
 41
30.0
 62
     5
 63
     7
421
 16777215
 74
     0
 91
        0
 64
     7
 65
   257
 75
     1
175
     1
 42
1.0
 92
        8
 66
     7
 43
1.0
 76
     1
 77
     6
 78
     2
 67
     7
 79
     5
170
     0
171
     0
290
     0
174
     0
 93
       13
 44
0.0
173
     0
291
     1
 45
0.0
1001
ACAD
1000
AcDbSavedByObjectVersion
1070
     0
  0
VISUALSTYLE
  5
2C
102
{ACAD_REACTORS
330
2A
102
}
102
{ACAD_XDICTIONARY
360
1FD
102
}
330
2A
100
AcDbVisualStyle
  2
FlatWithEdges
 70
     1
 71
     2
 72
     1
 73
     1
 90
        2
 40
0.6
 41
30.0
 62
     5
 63
     7
421
 16777215
 74
     1
 91
        0
 64
     7
 65
   257
 75
     1
175
     1
 42
1.0
 92
        0
 66
   257
 43
1.0
 76
     1
 77
     6
 78
     2
 67
     7
 79
     5
170
     0
171
     0
290
     0
174
     0
 93
       13
 44
0.0
173
     0
291
     1
 45
0.0
1001
ACAD
1000
AcDbSavedByObjectVersion
1070
     0
  0
VISUALSTYLE
  5
2D
102
{ACAD_REACTORS
330
2A
102
}
102
{ACAD_XDICTIONARY
360
1FF
102
}
330
2A
100
AcDbVisualStyle
  2
Gouraud
 70
     2
 71
     2
 72
     2
 73
     1
 90
        2
 40
0.6
 41
30.0
 62
     5
 63
     7
421
 16777215
 74
     0
 91
        0
 64
     7
 65
   257
 75
     1
175
     1
 42
1.0
 92
        0
 66
     7
 43
1.0
 76
     1
 77
     6
 78
     2
 67
     7
 79
     5
170
     0
171
     0
290
     0
174
     0
 93
       13
 44
0.0
173
     0
291
     1
 45
0.0
1001
ACAD
1000
AcDbSavedByObjectVersion
1070
     0
  0
VISUALSTYLE
  5
2E
102
{ACAD_REACTORS
330
2A
102
}
102
{ACAD_XDICTIONARY
360
201
102
}
330
2A
100
AcDbVisualStyle
  2
GouraudWithEdges
 70
     3
 71
     2
 72
     2
 73
     1
 90
        2
 40
0.6
 41
30.0
 62
     5
 63
     7
421
 16777215
 74
     1
 91
        0
 64
     7
 65
   257
 75
     1
175
     1
 42
1.0
 92
        0
 66
   257
 43
1.0
 76
     1
 77
     6
 78
     2
 67
     7
 79
     5
170
     0
171
     0
290
     0
174
     0
 93
       13
 44
0.0
173
     0
291
     1
 45
0.0
1001
ACAD
1000
AcDbSavedByObjectVersion
1070
     0
  0
VISUALSTYLE
  5
31
102
{ACAD_REACTORS
330
2A
102
}
102
{ACAD_XDICTIONARY
360
207
102
}
330
2A
100
AcDbVisualStyle
  2
Hidden
 70
     6
 71
     1
 72
     2
 73
     2
 90
        0
 40
0.6
 41
30.0
 62
     5
 63
     7
421
 16777215
 74
     2
 91
        2
 64
     7
 65
   257
 75
     2
175
     1
 42
40.0
 92
        0
 66
   257
 43
1.0
 76
     1
 77
     6
 78
     2
 67
     7
 79
     3
170
     0
171
     0
290
     0
174
     0
 93
        1
 44
0.0
173
     0
291
     0
 45
0.0
1001
ACAD
1000
AcDbSavedByObjectVersion
1070
     0
  0
VISUALSTYLE
  5
3B
102
{ACAD_REACTORS
330
2A
102
}
102
{ACAD_XDICTIONARY
360
21B
102
}
330
2A
100
AcDbVisualStyle
  2
JitterOff
 70
    20
 71
     2
 72
     2
 73
     0
 90
        0
 40
0.6
 41
30.0
 62
     5
 63
     7
421
 16777215
 74
     1
 91
        4
 64
     7
 65
   257
 75
     1
175
     1
 42
1.0
 92
       10
 66
     7
 43
1.0
 76
     1
 77
     6
 78
     2
 67
     7
 79
     5
170
     0
171
     0
290
     0
174
     0
 93
        1
 44
0.0
173
     0
291
     1
 45
0.0
1001
ACAD
1000
AcDbSavedByObjectVersion
1070
     0
  0
VISUALSTYLE
  5
38
102
{ACAD_REACTORS
330
2A
102
}
102
{ACAD_XDICTIONARY
360
215
102
}
330
2A
100
AcDbVisualStyle
  2
Linepattern
 70
    14
 71
     2
 72
     2
 73
     0
 90
        0
 40
0.6
 41
30.0
 62
     5
 63
     7
421
 16777215
 74
     1
 91
        4
 64
     7
 65
   257
 75
     7
175
     7
 42
1.0
 92
        8
 66
     7
 43
1.0
 76
     1
 77
     6
 78
     2
 67
     7
 79
     5
170
     0
171
     0
290
     0
174
     0
 93
        1
 44
0.0
173
     0
291
     1
 45
0.0
1001
ACAD
1000
AcDbSavedByObjectVersion
1070
     0
  0
VISUALSTYLE
  5
3C
102
{ACAD_REACTORS
330
2A
102
}
102
{ACAD_XDICTIONARY
360
21D
102
}
330
2A
100
AcDbVisualStyle
  2
OverhangOff
 70
    21
 71
     2
 72
     2
 73
     0
 90
        0
 40
0.6
 41
30.0
 62
     5
 63
     7
421
 16777215
 74
     1
 91
        4
 64
     7
 65
   257
 75
     1
175
     1
 42
1.0
 92
        9
 66
     7
 43
1.0
 76
     1
 77
     6
 78
     2
 67
     7
 79
     5
170
     0
171
     0
290
     0
174
     0
 93
        1
 44
0.0
173
     0
291
     1
 45
0.0
1001
ACAD
1000
AcDbSavedByObjectVersion
1070
     0
  0
VISUALSTYLE
  5
33
102
{ACAD_REACTORS
330
2A
102
}
102
{ACAD_XDICTIONARY
360
20B
102
}
330
2A
100
AcDbVisualStyle
  2
Realistic
 70
     8
 71
     2
 72
     3
 73
     0
 90
        2
 40
0.6
 41
30.0
 62
     5
 63
     7
421
 16777215
 74
     0
 91
        0
 64
     7
 65
   257
 75
     1
175
     1
 42
1.0
 92
        8
 66
   257
 43
1.0
 76
     1
 77
     6
 78
     2
 67
     7
 79
     3
170
     0
171
     0
290
     0
174
     0
 93
       13
 44
0.0
173
     0
291
     0
 45
0.0
1001
ACAD
1000
AcDbSavedByObjectVersion
1070
     0
  0
VISUALSTYLE
  5
42
102
{ACAD_REACTORS
330
2A
102
}
102
{ACAD_XDICTIONARY
360
229
102
}
330
2A
100
AcDbVisualStyle
  2
Shaded
 70
    27
 71
     2
 72
     2
 73
     1
 90
        2
 40
0.6
 41
30.0
 62
     5
 63
     7
421
 16777215
 74
     0
 91
        4
 64
     7
 65
   257
 75
     1
175
     1
 42
1.0
 92
        8
 66
   257
 43
1.0
 76
     1
 77
     6
 78
     2
 67
     8
425
  7895160
 79
     3
170
     0
171
     0
290
     0
174
     0
 93
        5
 44
0.0
173
     0
291
     0
 45
0.0
1001
ACAD
1000
AcDbSavedByObjectVersion
1070
     0
  0
VISUALSTYLE
  5
41
102
{ACAD_REACTORS
330
2A
102
}
102
{ACAD_XDICTIONARY
360
227
102
}
330
2A
100
AcDbVisualStyle
  2
Shaded with edges
 70
    26
 71
     2
 72
     2
 73
     1
 90
        2
 40
0.6
 41
30.0
 62
     5
 63
     7
421
 16777215
 74
     1
 91
       10
 64
     7
 65
   257
 75
     2
175
     1
 42
1.0
 92
        8
 66
   257
 43
1.0
 76
     1
 77
     6
 78
     2
 67
     7
 79
     3
170
     0
171
     0
290
     0
174
     0
 93
        5
 44
0.0
173
     0
291
     0
 45
0.0
1001
ACAD
1000
AcDbSavedByObjectVersion
1070
     0
  0
VISUALSTYLE
  5
3E
102
{ACAD_REACTORS
330
2A
102
}
102
{ACAD_XDICTIONARY
360
221
102
}
330
2A
100
AcDbVisualStyle
  2
Shades of Gray
 70
    23
 71
     2
 72
     2
 73
     3
 90
        0
 40
0.6
 41
30.0
 62
     5
 63
     7
421
 16777215
 74
     2
 91
        2
 64
     7
 65
     7
 75
     1
175
     1
 42
40.0
 92
        8
 66
     7
 43
1.0
 76
     1
 77
     6
 78
     2
 67
     7
 79
     3
170
     0
171
     0
290
     0
174
     0
 93
        1
 44
0.0
173
     0
291
     0
 45
0.0
1001
ACAD
1000
AcDbSavedByObjectVersion
1070
     0
  0
VISUALSTYLE
  5
3F
102
{ACAD_REACTORS
330
2A
102
}
102
{ACAD_XDICTIONARY
360
223
102
}
330
2A
100
AcDbVisualStyle
  2
Sketchy
 70
    24
 71
     1
 72
     2
 73
     2
 90
        0
 40
0.6
 41
30.0
 62
     5
 63
     7
421
 16777215
 74
     2
 91
        2
 64
     7
 65
     7
 75
     1
175
     1
 42
40.0
 92
       11
 66
     7
 43
1.0
 76
     1
 77
     6
 78
     2
 67
     7
 79
     6
170
     0
171
     0
290
     0
174
     0
 93
        1
 44
0.0
173
     0
291
     0
 45
0.0
1001
ACAD
1000
AcDbSavedByObjectVersion
1070
     0
  0
VISUALSTYLE
  5
37
102
{ACAD_REACTORS
330
2A
102
}
102
{ACAD_XDICTIONARY
360
213
102
}
330
2A
100
AcDbVisualStyle
  2
Thicken
 70
    13
 71
     2
 72
     2
 73
     0
 90
        0
 40
0.6
 41
30.0
 62
     5
 63
     7
421
 16777215
 74
     1
 91
        4
 64
     7
 65
   257
 75
     1
175
     1
 42
1.0
 92
       12
 66
     7
 43
1.0
 76
     1
 77
     6
 78
     2
 67
     7
 79
     5
170
     0
171
     0
290
     0
174
     0
 93
        1
 44
0.0
173
     0
291
     1
 45
0.0
1001
ACAD
1000
AcDbSavedByObjectVersion
1070
     0
  0
VISUALSTYLE
  5
30
102
{ACAD_REACTORS
330
2A
102
}
102
{ACAD_XDICTIONARY
360
205
102
}
330
2A
100
AcDbVisualStyle
  2
Wireframe
 70
     5
 71
     0
 72
     2
 73
     0
 90
        0
 40
0.6
 41
30.0
 62
     5
 63
     7
421
 16777215
 74
     1
 91
        4
 64
     7
 65
   257
 75
     1
175
     1
 42
1.0
 92
        0
 66
   257
 43
1.0
 76
     1
 77
     6
 78
     2
 67
     7
 79
     3
170
     0
171
     0
290
     0
174
     0
 93
        1
 44
0.0
173
     0
291
     0
 45
0.0
1001
ACAD
1000
AcDbSavedByObjectVersion
1070
     0
  0
VISUALSTYLE
  5
40
102
{ACAD_REACTORS
330
2A
102
}
102
{ACAD_XDICTIONARY
360
225
102
}
330
2A
100
AcDbVisualStyle
  2
X-Ray
 70
    25
 71
     2
 72
     2
 73
     1
 90
        1
 40
0.5
 41
30.0
 62
     5
 63
     7
421
 16777215
 74
     1
 91
        0
 64
     7
 65
   257
 75
     1
175
     1
 42
1.0
 92
        8
 66
     7
 43
1.0
 76
     1
 77
     6
 78
     2
 67
     7
 79
     3
170
     0
171
     0
290
     0
174
     0
 93
       13
 44
0.0
173
     0
291
     0
 45
0.0
1001
ACAD
1000
AcDbSavedByObjectVersion
1070
     0
  0
DICTIONARYVAR
  5
1F9
102
{ACAD_REACTORS
330
1F8
102
}
330
1F8
100
DictionaryVariables
280
     0
  1
1:1
  0
DICTIONARYVAR
  5
1FA
102
{ACAD_REACTORS
330
1F8
102
}
330
1F8
100
DictionaryVariables
280
     0
  1
1
  0
DICTIONARY
  5
22D
330
45
100
AcDbDictionary
280
     1
281
     1
  3
ACAD_XREC_ROUNDTRIP
360
22E
  0
DICTIONARY
  5
22B
330
44
100
AcDbDictionary
280
     1
281
     1
  3
ACAD_XREC_ROUNDTRIP
360
22C
  0
DICTIONARY
  5
22F
330
46
100
AcDbDictionary
280
     1
281
     1
  3
ACAD_XREC_ROUNDTRIP
360
230
  0
DICTIONARY
  5
203
330
2F
100
AcDbDictionary
280
     1
281
     1
  3
ACAD_XREC_ROUNDTRIP
360
204
  0
DICTIONARY
  5
209
330
32
100
AcDbDictionary
280
     1
281
     1
  3
ACAD_XREC_ROUNDTRIP
360
20A
  0
DICTIONARY
  5
211
330
36
100
AcDbDictionary
280
     1
281
     1
  3
ACAD_XREC_ROUNDTRIP
360
212
  0
DICTIONARY
  5
219
330
3A
100
AcDbDictionary
280
     1
281
     1
  3
ACAD_XREC_ROUNDTRIP
360
21A
  0
DICTIONARY
  5
20D
330
34
100
AcDbDictionary
280
     1
281
     1
  3
ACAD_XREC_ROUNDTRIP
360
20E
  0
DICTIONARY
  5
20F
330
35
100
AcDbDictionary
280
     1
281
     1
  3
ACAD_XREC_ROUNDTRIP
360
210
  0
DICTIONARY
  5
21F
330
3D
100
AcDbDictionary
280
     1
281
     1
  3
ACAD_XREC_ROUNDTRIP
360
220
  0
DICTIONARY
  5
217
330
39
100
AcDbDictionary
280
     1
281
     1
  3
ACAD_XREC_ROUNDTRIP
360
218
  0
DICTIONARY
  5
1FB
330
2B
100
AcDbDictionary
280
     1
281
     1
  3
ACAD_XREC_ROUNDTRIP
360
1FC
  0
DICTIONARY
  5
1FD
330
2C
100
AcDbDictionary
280
     1
281
     1
  3
ACAD_XREC_ROUNDTRIP
360
1FE
  0
DICTIONARY
  5
1FF
330
2D
100
AcDbDictionary
280
     1
281
     1
  3
ACAD_XREC_ROUNDTRIP
360
200
  0
DICTIONARY
  5
201
330
2E
100
AcDbDictionary
280
     1
281
     1
  3
ACAD_XREC_ROUNDTRIP
360
202
  0
DICTIONARY
  5
207
330
31
100
AcDbDictionary
280
     1
281
     1
  3
ACAD_XREC_ROUNDTRIP
360
208
  0
DICTIONARY
  5
21B
330
3B
100
AcDbDictionary
280
     1
281
     1
  3
ACAD_XREC_ROUNDTRIP
360
21C
  0
DICTIONARY
  5
215
330
38
100
AcDbDictionary
280
     1
281
     1
  3
ACAD_XREC_ROUNDTRIP
360
216
  0
DICTIONARY
  5
21D
330
3C
100
AcDbDictionary
280
     1
281
     1
  3
ACAD_XREC_ROUNDTRIP
360
21E
  0
DICTIONARY
  5
20B
330
33
100
AcDbDictionary
280
     1
281
     1
  3
ACAD_XREC_ROUNDTRIP
360
20C
  0
DICTIONARY
  5
229
330
42
100
AcDbDictionary
280
     1
281
     1
  3
ACAD_XREC_ROUNDTRIP
360
22A
  0
DICTIONARY
  5
227
330
41
100
AcDbDictionary
280
     1
281
     1
  3
ACAD_XREC_ROUNDTRIP
360
228
  0
DICTIONARY
  5
221
330
3E
100
AcDbDictionary
280
     1
281
     1
  3
ACAD_XREC_ROUNDTRIP
360
222
  0
DICTIONARY
  5
223
330
3F
100
AcDbDictionary
280
     1
281
     1
  3
ACAD_XREC_ROUNDTRIP
360
224
  0
DICTIONARY
  5
213
330
37
100
AcDbDictionary
280
     1
281
     1
  3
ACAD_XREC_ROUNDTRIP
360
214
  0
DICTIONARY
  5
205
330
30
100
AcDbDictionary
280
     1
281
     1
  3
ACAD_XREC_ROUNDTRIP
360
206
  0
DICTIONARY
  5
225
330
40
100
AcDbDictionary
280
     1
281
     1
  3
ACAD_XREC_ROUNDTRIP
360
226
  0
XRECORD
  5
22E
102
{ACAD_REACTORS
330
22D
102
}
330
22D
100
AcDbXrecord
280
     1
102
MATERIAL
148
0.0
149
0.0
149
0.0
 93
        0
 94
      127
282
     0
 72
     1
 77
     1
171
     1
175
     1
179
     1
273
     0
  0
XRECORD
  5
22C
102
{ACAD_REACTORS
330
22B
102
}
330
22B
100
AcDbXrecord
280
     1
102
MATERIAL
148
0.0
149
0.0
149
0.0
 93
        0
 94
      127
282
     0
 72
     1
 77
     1
171
     1
175
     1
179
     1
273
     0
  0
XRECORD
  5
230
102
{ACAD_REACTORS
330
22F
102
}
330
22F
100
AcDbXrecord
280
     1
102
MATERIAL
148
0.0
149
0.0
149
0.0
 93
        0
 94
      127
282
     0
 72
     1
 77
     1
171
     1
175
     1
179
     1
273
     0
  0
XRECORD
  5
204
102
{ACAD_REACTORS
330
203
102
}
330
203
100
AcDbXrecord
280
     1
102
RTVSPropertyOp0
 70
     1
102
RTVSPropertyOp1
 70
     1
102
RTVSPropertyOp2
 70
     1
102
RTVSPropertyOp3
 70
     1
102
RTVSPropertyOp4
 70
     1
102
RTVSPropertyOp5
 70
     1
102
RTVSPropertyOp6
 70
     1
102
RTVSPropertyOp7
 70
     1
102
RTVSPropertyOp8
 70
     1
102
RTVSPropertyOp9
 70
     1
102
RTVSPropertyOp10
 70
     1
102
RTVSPropertyOp11
 70
     1
102
RTVSPropertyOp12
 70
     1
102
RTVSPropertyOp13
 70
     1
102
RTVSPropertyOp14
 70
     1
102
RTVSPropertyOp15
 70
     1
102
RTVSPropertyOp16
 70
     1
102
RTVSPropertyOp17
 70
     1
102
RTVSPropertyOp18
 70
     1
102
RTVSPropertyOp19
 70
     1
102
RTVSPropertyOp20
 70
     1
102
RTVSPropertyOp21
 70
     1
102
RTVSPropertyOp22
 70
     1
102
RTVSPropertyOp23
 70
     1
102
RTVSPropertyOp24
 70
     1
102
RTVSPropertyOp25
 70
     1
102
RTVSPropertyOp26
 70
     1
102
RTVSPropertyOp27
 70
     1
102
RTVSPropertyOp28
 70
     1
102
RTVSPropertyOp29
 70
     1
102
RTVSPropertyOp30
 70
     1
102
RTVSPropertyOp31
 70
     1
102
RTVSPropertyOp32
 70
     1
102
RTVSPropertyOp33
 70
     1
102
RTVSPropertyOp34
 70
     1
102
RTVSPropertyOp35
 70
     1
102
RTVSPropertyOp36
 70
     1
102
RTVSPropertyOp37
 70
     1
102
RTVSPropertyOp38
 70
     1
102
RTVSPropertyOp39
 70
     1
102
RTVSPropertyOp40
 70
     1
102
RTVSPropertyOp41
 70
     1
102
RTVSPropertyOp42
 70
     1
102
RTVSPropertyOp43
 70
     1
102
RTVSPropertyOp44
 70
     1
102
RTVSPropertyOp45
 70
     1
102
RTVSPropertyOp46
 70
     1
102
RTVSPropertyOp47
 70
     1
102
RTVSPropertyOp48
 70
     1
102
RTVSPropertyOp49
 70
     1
102
RTVSPropertyOp50
 70
     1
102
RTVSPropertyOp51
 70
     0
102
RTVSPropertyOp52
 70
     0
102
RTVSPropertyOp53
 70
     1
102
RTVSPropertyOp54
 70
     1
102
RTVSPropertyOp55
 70
     1
102
RTVSPropertyOp56
 70
     1
102
RTVSPropertyOp57
 70
     1
102
RTVSPost2010Prop28
280
     1
102
RTVSPost2010PropOp28
 70
     1
102
RTVSPost2010Prop29
280
     1
102
RTVSPost2010PropOp29
 70
     1
102
RTVSPost2010Prop30
280
     0
102
RTVSPost2010PropOp30
 70
     1
102
RTVSPost2010Prop31
280
     0
102
RTVSPost2010PropOp31
 70
     1
102
RTVSPost2010Prop32
280
     0
102
RTVSPost2010PropOp32
 70
     1
102
RTVSPost2010Prop33
280
     0
102
RTVSPost2010PropOp33
 70
     1
102
RTVSPost2010Prop34
280
     0
102
RTVSPost2010PropOp34
 70
     1
102
RTVSPost2010Prop35
280
     0
102
RTVSPost2010PropOp35
 70
     1
102
RTVSPost2010Prop36
280
     0
102
RTVSPost2010PropOp36
 70
     1
102
RTVSPost2010Prop37
 90
       50
102
RTVSPost2010PropOp37
 70
     1
102
RTVSPost2010Prop38
140
0.0
102
RTVSPost2010PropOp38
 70
     1
102
RTVSPost2010Prop39
140
1.0
102
RTVSPost2010PropOp39
 70
     1
102
RTVSPost2010Prop40
 90
        0
102
RTVSPost2010PropOp40
 70
     1
102
RTVSPost2010Prop41ColorIndex
 90
       18
102
RTVSPost2010Prop41ColorRGB
 90
        0
102
RTVSPost2010PropOp41
 70
     1
102
RTVSPost2010Prop42
 90
       50
102
RTVSPost2010PropOp42
 70
     1
102
RTVSPost2010Prop43
 90
        3
102
RTVSPost2010PropOp43
 70
     1
102
RTVSPost2010Prop44ColorIndex
 90
        5
102
RTVSPost2010Prop44ColorRGB
 90
      255
102
RTVSPost2010PropOp44
 70
     1
102
RTVSPost2010Prop45
280
     0
102
RTVSPost2010PropOp45
 70
     1
102
RTVSPost2010Prop46
 90
       50
102
RTVSPost2010PropOp46
 70
     1
102
RTVSPost2010Prop47
 90
       50
102
RTVSPost2010PropOp47
 70
     1
102
RTVSPost2010Prop48
 90
       50
102
RTVSPost2010PropOp48
 70
     1
102
RTVSPost2010Prop49
280
     0
102
RTVSPost2010PropOp49
 70
     1
102
RTVSPost2010Prop50
 90
       50
102
RTVSPost2010PropOp50
 70
     1
102
RTVSPost2010Prop51ColorIndex
 90
      256
102
RTVSPost2010Prop51ColorRGB
 90
-16777216
102
RTVSPost2010PropOp51
 70
     0
102
RTVSPost2010Prop52
140
1.0
102
RTVSPost2010PropOp52
 70
     0
102
RTVSPost2010Prop53
 90
        2
102
RTVSPost2010PropOp53
 70
     1
102
RTVSPost2010Prop54
  1
strokes_ogs.tif
102
RTVSPost2010PropOp54
 70
     1
102
RTVSPost2010Prop55
280
     0
102
RTVSPost2010PropOp55
 70
     1
102
RTVSPost2010Prop56
140
1.0
102
RTVSPost2010PropOp56
 70
     1
102
RTVSPost2010Prop57
140
1.0
102
RTVSPost2010PropOp57
 70
     1
  0
XRECORD
  5
20A
102
{ACAD_REACTORS
330
209
102
}
330
209
100
AcDbXrecord
280
     1
102
RTVSPropertyOp0
 70
     1
102
RTVSPropertyOp1
 70
     1
102
RTVSPropertyOp2
 70
     1
102
RTVSPropertyOp3
 70
     1
102
RTVSPropertyOp4
 70
     1
102
RTVSPropertyOp5
 70
     1
102
RTVSPropertyOp6
 70
     1
102
RTVSPropertyOp7
 70
     1
102
RTVSPropertyOp8
 70
     1
102
RTVSPropertyOp9
 70
     1
102
RTVSPropertyOp10
 70
     1
102
RTVSPropertyOp11
 70
     1
102
RTVSPropertyOp12
 70
     1
102
RTVSPropertyOp13
 70
     1
102
RTVSPropertyOp14
 70
     1
102
RTVSPropertyOp15
 70
     1
102
RTVSPropertyOp16
 70
     1
102
RTVSPropertyOp17
 70
     1
102
RTVSPropertyOp18
 70
     1
102
RTVSPropertyOp19
 70
     1
102
RTVSPropertyOp20
 70
     1
102
RTVSPropertyOp21
 70
     1
102
RTVSPropertyOp22
 70
     1
102
RTVSPropertyOp23
 70
     1
102
RTVSPropertyOp24
 70
     1
102
RTVSPropertyOp25
 70
     1
102
RTVSPropertyOp26
 70
     1
102
RTVSPropertyOp27
 70
     1
102
RTVSPropertyOp28
 70
     1
102
RTVSPropertyOp29
 70
     1
102
RTVSPropertyOp30
 70
     1
102
RTVSPropertyOp31
 70
     1
102
RTVSPropertyOp32
 70
     1
102
RTVSPropertyOp33
 70
     1
102
RTVSPropertyOp34
 70
     1
102
RTVSPropertyOp35
 70
     1
102
RTVSPropertyOp36
 70
     1
102
RTVSPropertyOp37
 70
     1
102
RTVSPropertyOp38
 70
     1
102
RTVSPropertyOp39
 70
     1
102
RTVSPropertyOp40
 70
     1
102
RTVSPropertyOp41
 70
     1
102
RTVSPropertyOp42
 70
     1
102
RTVSPropertyOp43
 70
     1
102
RTVSPropertyOp44
 70
     1
102
RTVSPropertyOp45
 70
     1
102
RTVSPropertyOp46
 70
     1
102
RTVSPropertyOp47
 70
     1
102
RTVSPropertyOp48
 70
     1
102
RTVSPropertyOp49
 70
     1
102
RTVSPropertyOp50
 70
     1
102
RTVSPropertyOp51
 70
     0
102
RTVSPropertyOp52
 70
     0
102
RTVSPropertyOp53
 70
     1
102
RTVSPropertyOp54
 70
     1
102
RTVSPropertyOp55
 70
     1
102
RTVSPropertyOp56
 70
     1
102
RTVSPropertyOp57
 70
     1
102
RTVSPost2010Prop28
280
     0
102
RTVSPost2010PropOp28
 70
     1
102
RTVSPost2010Prop29
280
     1
102
RTVSPost2010PropOp29
 70
     1
102
RTVSPost2010Prop30
280
     1
102
RTVSPost2010PropOp30
 70
     1
102
RTVSPost2010Prop31
280
     0
102
RTVSPost2010PropOp31
 70
     1
102
RTVSPost2010Prop32
280
     0
102
RTVSPost2010PropOp32
 70
     1
102
RTVSPost2010Prop33
280
     0
102
RTVSPost2010PropOp33
 70
     1
102
RTVSPost2010Prop34
280
     0
102
RTVSPost2010PropOp34
 70
     1
102
RTVSPost2010Prop35
280
     0
102
RTVSPost2010PropOp35
 70
     1
102
RTVSPost2010Prop36
280
     0
102
RTVSPost2010PropOp36
 70
     1
102
RTVSPost2010Prop37
 90
       50
102
RTVSPost2010PropOp37
 70
     1
102
RTVSPost2010Prop38
140
0.0
102
RTVSPost2010PropOp38
 70
     1
102
RTVSPost2010Prop39
140
1.0
102
RTVSPost2010PropOp39
 70
     1
102
RTVSPost2010Prop40
 90
        0
102
RTVSPost2010PropOp40
 70
     1
102
RTVSPost2010Prop41ColorIndex
 90
       18
102
RTVSPost2010Prop41ColorRGB
 90
        0
102
RTVSPost2010PropOp41
 70
     1
102
RTVSPost2010Prop42
 90
       50
102
RTVSPost2010PropOp42
 70
     1
102
RTVSPost2010Prop43
 90
        3
102
RTVSPost2010PropOp43
 70
     1
102
RTVSPost2010Prop44ColorIndex
 90
        5
102
RTVSPost2010Prop44ColorRGB
 90
      255
102
RTVSPost2010PropOp44
 70
     1
102
RTVSPost2010Prop45
280
     0
102
RTVSPost2010PropOp45
 70
     1
102
RTVSPost2010Prop46
 90
       50
102
RTVSPost2010PropOp46
 70
     1
102
RTVSPost2010Prop47
 90
       50
102
RTVSPost2010PropOp47
 70
     1
102
RTVSPost2010Prop48
 90
       50
102
RTVSPost2010PropOp48
 70
     1
102
RTVSPost2010Prop49
280
     0
102
RTVSPost2010PropOp49
 70
     1
102
RTVSPost2010Prop50
 90
       50
102
RTVSPost2010PropOp50
 70
     1
102
RTVSPost2010Prop51ColorIndex
 90
      256
102
RTVSPost2010Prop51ColorRGB
 90
-16777216
102
RTVSPost2010PropOp51
 70
     0
102
RTVSPost2010Prop52
140
1.0
102
RTVSPost2010PropOp52
 70
     0
102
RTVSPost2010Prop53
 90
        2
102
RTVSPost2010PropOp53
 70
     1
102
RTVSPost2010Prop54
  1
strokes_ogs.tif
102
RTVSPost2010PropOp54
 70
     1
102
RTVSPost2010Prop55
280
     0
102
RTVSPost2010PropOp55
 70
     1
102
RTVSPost2010Prop56
140
1.0
102
RTVSPost2010PropOp56
 70
     1
102
RTVSPost2010Prop57
140
1.0
102
RTVSPost2010PropOp57
 70
     1
  0
XRECORD
  5
212
102
{ACAD_REACTORS
330
211
102
}
330
211
100
AcDbXrecord
280
     1
102
RTVSPropertyOp0
 70
     1
102
RTVSPropertyOp1
 70
     1
102
RTVSPropertyOp2
 70
     1
102
RTVSPropertyOp3
 70
     1
102
RTVSPropertyOp4
 70
     1
102
RTVSPropertyOp5
 70
     1
102
RTVSPropertyOp6
 70
     1
102
RTVSPropertyOp7
 70
     1
102
RTVSPropertyOp8
 70
     1
102
RTVSPropertyOp9
 70
     1
102
RTVSPropertyOp10
 70
     1
102
RTVSPropertyOp11
 70
     1
102
RTVSPropertyOp12
 70
     1
102
RTVSPropertyOp13
 70
     1
102
RTVSPropertyOp14
 70
     1
102
RTVSPropertyOp15
 70
     1
102
RTVSPropertyOp16
 70
     1
102
RTVSPropertyOp17
 70
     1
102
RTVSPropertyOp18
 70
     1
102
RTVSPropertyOp19
 70
     1
102
RTVSPropertyOp20
 70
     1
102
RTVSPropertyOp21
 70
     1
102
RTVSPropertyOp22
 70
     1
102
RTVSPropertyOp23
 70
     1
102
RTVSPropertyOp24
 70
     1
102
RTVSPropertyOp25
 70
     1
102
RTVSPropertyOp26
 70
     1
102
RTVSPropertyOp27
 70
     1
102
RTVSPropertyOp28
 70
     1
102
RTVSPropertyOp29
 70
     1
102
RTVSPropertyOp30
 70
     1
102
RTVSPropertyOp31
 70
     1
102
RTVSPropertyOp32
 70
     1
102
RTVSPropertyOp33
 70
     1
102
RTVSPropertyOp34
 70
     1
102
RTVSPropertyOp35
 70
     1
102
RTVSPropertyOp36
 70
     1
102
RTVSPropertyOp37
 70
     1
102
RTVSPropertyOp38
 70
     1
102
RTVSPropertyOp39
 70
     1
102
RTVSPropertyOp40
 70
     1
102
RTVSPropertyOp41
 70
     1
102
RTVSPropertyOp42
 70
     1
102
RTVSPropertyOp43
 70
     1
102
RTVSPropertyOp44
 70
     1
102
RTVSPropertyOp45
 70
     1
102
RTVSPropertyOp46
 70
     1
102
RTVSPropertyOp47
 70
     1
102
RTVSPropertyOp48
 70
     1
102
RTVSPropertyOp49
 70
     1
102
RTVSPropertyOp50
 70
     1
102
RTVSPropertyOp51
 70
     0
102
RTVSPropertyOp52
 70
     0
102
RTVSPropertyOp53
 70
     1
102
RTVSPropertyOp54
 70
     1
102
RTVSPropertyOp55
 70
     1
102
RTVSPropertyOp56
 70
     1
102
RTVSPropertyOp57
 70
     1
102
RTVSPost2010Prop28
280
     0
102
RTVSPost2010PropOp28
 70
     1
102
RTVSPost2010Prop29
280
     1
102
RTVSPost2010PropOp29
 70
     1
102
RTVSPost2010Prop30
280
     1
102
RTVSPost2010PropOp30
 70
     1
102
RTVSPost2010Prop31
280
     0
102
RTVSPost2010PropOp31
 70
     1
102
RTVSPost2010Prop32
280
     0
102
RTVSPost2010PropOp32
 70
     1
102
RTVSPost2010Prop33
280
     0
102
RTVSPost2010PropOp33
 70
     1
102
RTVSPost2010Prop34
280
     0
102
RTVSPost2010PropOp34
 70
     1
102
RTVSPost2010Prop35
280
     0
102
RTVSPost2010PropOp35
 70
     1
102
RTVSPost2010Prop36
280
     0
102
RTVSPost2010PropOp36
 70
     1
102
RTVSPost2010Prop37
 90
       50
102
RTVSPost2010PropOp37
 70
     1
102
RTVSPost2010Prop38
140
0.0
102
RTVSPost2010PropOp38
 70
     1
102
RTVSPost2010Prop39
140
1.0
102
RTVSPost2010PropOp39
 70
     1
102
RTVSPost2010Prop40
 90
        0
102
RTVSPost2010PropOp40
 70
     1
102
RTVSPost2010Prop41ColorIndex
 90
       18
102
RTVSPost2010Prop41ColorRGB
 90
        0
102
RTVSPost2010PropOp41
 70
     1
102
RTVSPost2010Prop42
 90
       50
102
RTVSPost2010PropOp42
 70
     1
102
RTVSPost2010Prop43
 90
        3
102
RTVSPost2010PropOp43
 70
     1
102
RTVSPost2010Prop44ColorIndex
 90
        5
102
RTVSPost2010Prop44ColorRGB
 90
      255
102
RTVSPost2010PropOp44
 70
     1
102
RTVSPost2010Prop45
280
     0
102
RTVSPost2010PropOp45
 70
     1
102
RTVSPost2010Prop46
 90
       50
102
RTVSPost2010PropOp46
 70
     1
102
RTVSPost2010Prop47
 90
       50
102
RTVSPost2010PropOp47
 70
     1
102
RTVSPost2010Prop48
 90
       50
102
RTVSPost2010PropOp48
 70
     1
102
RTVSPost2010Prop49
280
     0
102
RTVSPost2010PropOp49
 70
     1
102
RTVSPost2010Prop50
 90
       50
102
RTVSPost2010PropOp50
 70
     1
102
RTVSPost2010Prop51ColorIndex
 90
      256
102
RTVSPost2010Prop51ColorRGB
 90
-16777216
102
RTVSPost2010PropOp51
 70
     0
102
RTVSPost2010Prop52
140
1.0
102
RTVSPost2010PropOp52
 70
     0
102
RTVSPost2010Prop53
 90
        2
102
RTVSPost2010PropOp53
 70
     1
102
RTVSPost2010Prop54
  1
strokes_ogs.tif
102
RTVSPost2010PropOp54
 70
     1
102
RTVSPost2010Prop55
280
     0
102
RTVSPost2010PropOp55
 70
     1
102
RTVSPost2010Prop56
140
1.0
102
RTVSPost2010PropOp56
 70
     1
102
RTVSPost2010Prop57
140
1.0
102
RTVSPost2010PropOp57
 70
     1
  0
XRECORD
  5
21A
102
{ACAD_REACTORS
330
219
102
}
330
219
100
AcDbXrecord
280
     1
102
RTVSPropertyOp0
 70
     1
102
RTVSPropertyOp1
 70
     1
102
RTVSPropertyOp2
 70
     1
102
RTVSPropertyOp3
 70
     1
102
RTVSPropertyOp4
 70
     1
102
RTVSPropertyOp5
 70
     1
102
RTVSPropertyOp6
 70
     1
102
RTVSPropertyOp7
 70
     1
102
RTVSPropertyOp8
 70
     1
102
RTVSPropertyOp9
 70
     1
102
RTVSPropertyOp10
 70
     1
102
RTVSPropertyOp11
 70
     1
102
RTVSPropertyOp12
 70
     1
102
RTVSPropertyOp13
 70
     1
102
RTVSPropertyOp14
 70
     1
102
RTVSPropertyOp15
 70
     1
102
RTVSPropertyOp16
 70
     1
102
RTVSPropertyOp17
 70
     1
102
RTVSPropertyOp18
 70
     1
102
RTVSPropertyOp19
 70
     1
102
RTVSPropertyOp20
 70
     1
102
RTVSPropertyOp21
 70
     1
102
RTVSPropertyOp22
 70
     1
102
RTVSPropertyOp23
 70
     1
102
RTVSPropertyOp24
 70
     1
102
RTVSPropertyOp25
 70
     1
102
RTVSPropertyOp26
 70
     1
102
RTVSPropertyOp27
 70
     1
102
RTVSPropertyOp28
 70
     1
102
RTVSPropertyOp29
 70
     1
102
RTVSPropertyOp30
 70
     1
102
RTVSPropertyOp31
 70
     1
102
RTVSPropertyOp32
 70
     1
102
RTVSPropertyOp33
 70
     1
102
RTVSPropertyOp34
 70
     1
102
RTVSPropertyOp35
 70
     1
102
RTVSPropertyOp36
 70
     1
102
RTVSPropertyOp37
 70
     1
102
RTVSPropertyOp38
 70
     1
102
RTVSPropertyOp39
 70
     1
102
RTVSPropertyOp40
 70
     1
102
RTVSPropertyOp41
 70
     1
102
RTVSPropertyOp42
 70
     1
102
RTVSPropertyOp43
 70
     1
102
RTVSPropertyOp44
 70
     1
102
RTVSPropertyOp45
 70
     1
102
RTVSPropertyOp46
 70
     1
102
RTVSPropertyOp47
 70
     1
102
RTVSPropertyOp48
 70
     1
102
RTVSPropertyOp49
 70
     1
102
RTVSPropertyOp50
 70
     1
102
RTVSPropertyOp51
 70
     0
102
RTVSPropertyOp52
 70
     0
102
RTVSPropertyOp53
 70
     1
102
RTVSPropertyOp54
 70
     1
102
RTVSPropertyOp55
 70
     1
102
RTVSPropertyOp56
 70
     1
102
RTVSPropertyOp57
 70
     1
102
RTVSPost2010Prop28
280
     0
102
RTVSPost2010PropOp28
 70
     1
102
RTVSPost2010Prop29
280
     1
102
RTVSPost2010PropOp29
 70
     1
102
RTVSPost2010Prop30
280
     1
102
RTVSPost2010PropOp30
 70
     1
102
RTVSPost2010Prop31
280
     0
102
RTVSPost2010PropOp31
 70
     1
102
RTVSPost2010Prop32
280
     0
102
RTVSPost2010PropOp32
 70
     1
102
RTVSPost2010Prop33
280
     0
102
RTVSPost2010PropOp33
 70
     1
102
RTVSPost2010Prop34
280
     0
102
RTVSPost2010PropOp34
 70
     1
102
RTVSPost2010Prop35
280
     0
102
RTVSPost2010PropOp35
 70
     1
102
RTVSPost2010Prop36
280
     0
102
RTVSPost2010PropOp36
 70
     1
102
RTVSPost2010Prop37
 90
       50
102
RTVSPost2010PropOp37
 70
     1
102
RTVSPost2010Prop38
140
0.0
102
RTVSPost2010PropOp38
 70
     1
102
RTVSPost2010Prop39
140
1.0
102
RTVSPost2010PropOp39
 70
     1
102
RTVSPost2010Prop40
 90
        0
102
RTVSPost2010PropOp40
 70
     1
102
RTVSPost2010Prop41ColorIndex
 90
       18
102
RTVSPost2010Prop41ColorRGB
 90
        0
102
RTVSPost2010PropOp41
 70
     1
102
RTVSPost2010Prop42
 90
       50
102
RTVSPost2010PropOp42
 70
     1
102
RTVSPost2010Prop43
 90
        3
102
RTVSPost2010PropOp43
 70
     1
102
RTVSPost2010Prop44ColorIndex
 90
        5
102
RTVSPost2010Prop44ColorRGB
 90
      255
102
RTVSPost2010PropOp44
 70
     1
102
RTVSPost2010Prop45
280
     0
102
RTVSPost2010PropOp45
 70
     1
102
RTVSPost2010Prop46
 90
       50
102
RTVSPost2010PropOp46
 70
     1
102
RTVSPost2010Prop47
 90
       50
102
RTVSPost2010PropOp47
 70
     1
102
RTVSPost2010Prop48
 90
       50
102
RTVSPost2010PropOp48
 70
     1
102
RTVSPost2010Prop49
280
     0
102
RTVSPost2010PropOp49
 70
     1
102
RTVSPost2010Prop50
 90
       50
102
RTVSPost2010PropOp50
 70
     1
102
RTVSPost2010Prop51ColorIndex
 90
      256
102
RTVSPost2010Prop51ColorRGB
 90
-16777216
102
RTVSPost2010PropOp51
 70
     0
102
RTVSPost2010Prop52
140
1.0
102
RTVSPost2010PropOp52
 70
     0
102
RTVSPost2010Prop53
 90
        2
102
RTVSPost2010PropOp53
 70
     1
102
RTVSPost2010Prop54
  1
strokes_ogs.tif
102
RTVSPost2010PropOp54
 70
     1
102
RTVSPost2010Prop55
280
     0
102
RTVSPost2010PropOp55
 70
     1
102
RTVSPost2010Prop56
140
1.0
102
RTVSPost2010PropOp56
 70
     1
102
RTVSPost2010Prop57
140
1.0
102
RTVSPost2010PropOp57
 70
     1
  0
XRECORD
  5
20E
102
{ACAD_REACTORS
330
20D
102
}
330
20D
100
AcDbXrecord
280
     1
102
RTVSPropertyOp0
 70
     1
102
RTVSPropertyOp1
 70
     1
102
RTVSPropertyOp2
 70
     1
102
RTVSPropertyOp3
 70
     1
102
RTVSPropertyOp4
 70
     1
102
RTVSPropertyOp5
 70
     1
102
RTVSPropertyOp6
 70
     1
102
RTVSPropertyOp7
 70
     1
102
RTVSPropertyOp8
 70
     1
102
RTVSPropertyOp9
 70
     1
102
RTVSPropertyOp10
 70
     1
102
RTVSPropertyOp11
 70
     1
102
RTVSPropertyOp12
 70
     1
102
RTVSPropertyOp13
 70
     1
102
RTVSPropertyOp14
 70
     1
102
RTVSPropertyOp15
 70
     1
102
RTVSPropertyOp16
 70
     1
102
RTVSPropertyOp17
 70
     1
102
RTVSPropertyOp18
 70
     1
102
RTVSPropertyOp19
 70
     1
102
RTVSPropertyOp20
 70
     1
102
RTVSPropertyOp21
 70
     1
102
RTVSPropertyOp22
 70
     1
102
RTVSPropertyOp23
 70
     1
102
RTVSPropertyOp24
 70
     1
102
RTVSPropertyOp25
 70
     1
102
RTVSPropertyOp26
 70
     1
102
RTVSPropertyOp27
 70
     1
102
RTVSPropertyOp28
 70
     1
102
RTVSPropertyOp29
 70
     1
102
RTVSPropertyOp30
 70
     1
102
RTVSPropertyOp31
 70
     1
102
RTVSPropertyOp32
 70
     1
102
RTVSPropertyOp33
 70
     1
102
RTVSPropertyOp34
 70
     1
102
RTVSPropertyOp35
 70
     1
102
RTVSPropertyOp36
 70
     1
102
RTVSPropertyOp37
 70
     1
102
RTVSPropertyOp38
 70
     1
102
RTVSPropertyOp39
 70
     1
102
RTVSPropertyOp40
 70
     1
102
RTVSPropertyOp41
 70
     1
102
RTVSPropertyOp42
 70
     1
102
RTVSPropertyOp43
 70
     1
102
RTVSPropertyOp44
 70
     1
102
RTVSPropertyOp45
 70
     1
102
RTVSPropertyOp46
 70
     1
102
RTVSPropertyOp47
 70
     1
102
RTVSPropertyOp48
 70
     1
102
RTVSPropertyOp49
 70
     1
102
RTVSPropertyOp50
 70
     1
102
RTVSPropertyOp51
 70
     0
102
RTVSPropertyOp52
 70
     0
102
RTVSPropertyOp53
 70
     1
102
RTVSPropertyOp54
 70
     1
102
RTVSPropertyOp55
 70
     1
102
RTVSPropertyOp56
 70
     1
102
RTVSPropertyOp57
 70
     1
102
RTVSPost2010Prop28
280
     0
102
RTVSPost2010PropOp28
 70
     1
102
RTVSPost2010Prop29
280
     1
102
RTVSPost2010PropOp29
 70
     1
102
RTVSPost2010Prop30
280
     1
102
RTVSPost2010PropOp30
 70
     1
102
RTVSPost2010Prop31
280
     0
102
RTVSPost2010PropOp31
 70
     1
102
RTVSPost2010Prop32
280
     0
102
RTVSPost2010PropOp32
 70
     1
102
RTVSPost2010Prop33
280
     0
102
RTVSPost2010PropOp33
 70
     1
102
RTVSPost2010Prop34
280
     0
102
RTVSPost2010PropOp34
 70
     1
102
RTVSPost2010Prop35
280
     0
102
RTVSPost2010PropOp35
 70
     1
102
RTVSPost2010Prop36
280
     0
102
RTVSPost2010PropOp36
 70
     1
102
RTVSPost2010Prop37
 90
       50
102
RTVSPost2010PropOp37
 70
     1
102
RTVSPost2010Prop38
140
0.0
102
RTVSPost2010PropOp38
 70
     1
102
RTVSPost2010Prop39
140
1.0
102
RTVSPost2010PropOp39
 70
     1
102
RTVSPost2010Prop40
 90
        0
102
RTVSPost2010PropOp40
 70
     1
102
RTVSPost2010Prop41ColorIndex
 90
       18
102
RTVSPost2010Prop41ColorRGB
 90
        0
102
RTVSPost2010PropOp41
 70
     1
102
RTVSPost2010Prop42
 90
       50
102
RTVSPost2010PropOp42
 70
     1
102
RTVSPost2010Prop43
 90
        3
102
RTVSPost2010PropOp43
 70
     1
102
RTVSPost2010Prop44ColorIndex
 90
        5
102
RTVSPost2010Prop44ColorRGB
 90
      255
102
RTVSPost2010PropOp44
 70
     1
102
RTVSPost2010Prop45
280
     0
102
RTVSPost2010PropOp45
 70
     1
102
RTVSPost2010Prop46
 90
       50
102
RTVSPost2010PropOp46
 70
     1
102
RTVSPost2010Prop47
 90
       50
102
RTVSPost2010PropOp47
 70
     1
102
RTVSPost2010Prop48
 90
       50
102
RTVSPost2010PropOp48
 70
     1
102
RTVSPost2010Prop49
280
     0
102
RTVSPost2010PropOp49
 70
     1
102
RTVSPost2010Prop50
 90
       50
102
RTVSPost2010PropOp50
 70
     1
102
RTVSPost2010Prop51ColorIndex
 90
      256
102
RTVSPost2010Prop51ColorRGB
 90
-16777216
102
RTVSPost2010PropOp51
 70
     0
102
RTVSPost2010Prop52
140
1.0
102
RTVSPost2010PropOp52
 70
     0
102
RTVSPost2010Prop53
 90
        2
102
RTVSPost2010PropOp53
 70
     1
102
RTVSPost2010Prop54
  1
strokes_ogs.tif
102
RTVSPost2010PropOp54
 70
     1
102
RTVSPost2010Prop55
280
     0
102
RTVSPost2010PropOp55
 70
     1
102
RTVSPost2010Prop56
140
1.0
102
RTVSPost2010PropOp56
 70
     1
102
RTVSPost2010Prop57
140
1.0
102
RTVSPost2010PropOp57
 70
     1
  0
XRECORD
  5
210
102
{ACAD_REACTORS
330
20F
102
}
330
20F
100
AcDbXrecord
280
     1
102
RTVSPropertyOp0
 70
     1
102
RTVSPropertyOp1
 70
     1
102
RTVSPropertyOp2
 70
     1
102
RTVSPropertyOp3
 70
     1
102
RTVSPropertyOp4
 70
     1
102
RTVSPropertyOp5
 70
     1
102
RTVSPropertyOp6
 70
     1
102
RTVSPropertyOp7
 70
     1
102
RTVSPropertyOp8
 70
     1
102
RTVSPropertyOp9
 70
     1
102
RTVSPropertyOp10
 70
     1
102
RTVSPropertyOp11
 70
     1
102
RTVSPropertyOp12
 70
     1
102
RTVSPropertyOp13
 70
     1
102
RTVSPropertyOp14
 70
     1
102
RTVSPropertyOp15
 70
     1
102
RTVSPropertyOp16
 70
     1
102
RTVSPropertyOp17
 70
     1
102
RTVSPropertyOp18
 70
     1
102
RTVSPropertyOp19
 70
     1
102
RTVSPropertyOp20
 70
     1
102
RTVSPropertyOp21
 70
     1
102
RTVSPropertyOp22
 70
     1
102
RTVSPropertyOp23
 70
     1
102
RTVSPropertyOp24
 70
     1
102
RTVSPropertyOp25
 70
     1
102
RTVSPropertyOp26
 70
     1
102
RTVSPropertyOp27
 70
     1
102
RTVSPropertyOp28
 70
     1
102
RTVSPropertyOp29
 70
     1
102
RTVSPropertyOp30
 70
     1
102
RTVSPropertyOp31
 70
     1
102
RTVSPropertyOp32
 70
     1
102
RTVSPropertyOp33
 70
     1
102
RTVSPropertyOp34
 70
     1
102
RTVSPropertyOp35
 70
     1
102
RTVSPropertyOp36
 70
     1
102
RTVSPropertyOp37
 70
     1
102
RTVSPropertyOp38
 70
     1
102
RTVSPropertyOp39
 70
     1
102
RTVSPropertyOp40
 70
     1
102
RTVSPropertyOp41
 70
     1
102
RTVSPropertyOp42
 70
     1
102
RTVSPropertyOp43
 70
     1
102
RTVSPropertyOp44
 70
     1
102
RTVSPropertyOp45
 70
     1
102
RTVSPropertyOp46
 70
     1
102
RTVSPropertyOp47
 70
     1
102
RTVSPropertyOp48
 70
     1
102
RTVSPropertyOp49
 70
     1
102
RTVSPropertyOp50
 70
     1
102
RTVSPropertyOp51
 70
     0
102
RTVSPropertyOp52
 70
     0
102
RTVSPropertyOp53
 70
     1
102
RTVSPropertyOp54
 70
     1
102
RTVSPropertyOp55
 70
     1
102
RTVSPropertyOp56
 70
     1
102
RTVSPropertyOp57
 70
     1
102
RTVSPost2010Prop28
280
     0
102
RTVSPost2010PropOp28
 70
     1
102
RTVSPost2010Prop29
280
     1
102
RTVSPost2010PropOp29
 70
     1
102
RTVSPost2010Prop30
280
     1
102
RTVSPost2010PropOp30
 70
     1
102
RTVSPost2010Prop31
280
     0
102
RTVSPost2010PropOp31
 70
     1
102
RTVSPost2010Prop32
280
     0
102
RTVSPost2010PropOp32
 70
     1
102
RTVSPost2010Prop33
280
     0
102
RTVSPost2010PropOp33
 70
     1
102
RTVSPost2010Prop34
280
     0
102
RTVSPost2010PropOp34
 70
     1
102
RTVSPost2010Prop35
280
     0
102
RTVSPost2010PropOp35
 70
     1
102
RTVSPost2010Prop36
280
     0
102
RTVSPost2010PropOp36
 70
     1
102
RTVSPost2010Prop37
 90
       50
102
RTVSPost2010PropOp37
 70
     1
102
RTVSPost2010Prop38
140
0.0
102
RTVSPost2010PropOp38
 70
     1
102
RTVSPost2010Prop39
140
1.0
102
RTVSPost2010PropOp39
 70
     1
102
RTVSPost2010Prop40
 90
        0
102
RTVSPost2010PropOp40
 70
     1
102
RTVSPost2010Prop41ColorIndex
 90
       18
102
RTVSPost2010Prop41ColorRGB
 90
        0
102
RTVSPost2010PropOp41
 70
     1
102
RTVSPost2010Prop42
 90
       50
102
RTVSPost2010PropOp42
 70
     1
102
RTVSPost2010Prop43
 90
        3
102
RTVSPost2010PropOp43
 70
     1
102
RTVSPost2010Prop44ColorIndex
 90
        5
102
RTVSPost2010Prop44ColorRGB
 90
      255
102
RTVSPost2010PropOp44
 70
     1
102
RTVSPost2010Prop45
280
     0
102
RTVSPost2010PropOp45
 70
     1
102
RTVSPost2010Prop46
 90
       50
102
RTVSPost2010PropOp46
 70
     1
102
RTVSPost2010Prop47
 90
       50
102
RTVSPost2010PropOp47
 70
     1
102
RTVSPost2010Prop48
 90
       50
102
RTVSPost2010PropOp48
 70
     1
102
RTVSPost2010Prop49
280
     0
102
RTVSPost2010PropOp49
 70
     1
102
RTVSPost2010Prop50
 90
       50
102
RTVSPost2010PropOp50
 70
     1
102
RTVSPost2010Prop51ColorIndex
 90
      256
102
RTVSPost2010Prop51ColorRGB
 90
-16777216
102
RTVSPost2010PropOp51
 70
     0
102
RTVSPost2010Prop52
140
1.0
102
RTVSPost2010PropOp52
 70
     0
102
RTVSPost2010Prop53
 90
        2
102
RTVSPost2010PropOp53
 70
     1
102
RTVSPost2010Prop54
  1
strokes_ogs.tif
102
RTVSPost2010PropOp54
 70
     1
102
RTVSPost2010Prop55
280
     0
102
RTVSPost2010PropOp55
 70
     1
102
RTVSPost2010Prop56
140
1.0
102
RTVSPost2010PropOp56
 70
     1
102
RTVSPost2010Prop57
140
1.0
102
RTVSPost2010PropOp57
 70
     1
  0
XRECORD
  5
220
102
{ACAD_REACTORS
330
21F
102
}
330
21F
100
AcDbXrecord
280
     1
102
RTVSPropertyOp0
 70
     0
102
RTVSPropertyOp1
 70
     0
102
RTVSPropertyOp2
 70
     0
102
RTVSPropertyOp3
 70
     0
102
RTVSPropertyOp4
 70
     0
102
RTVSPropertyOp5
 70
     0
102
RTVSPropertyOp6
 70
     0
102
RTVSPropertyOp7
 70
     0
102
RTVSPropertyOp8
 70
     0
102
RTVSPropertyOp9
 70
     0
102
RTVSPropertyOp10
 70
     0
102
RTVSPropertyOp11
 70
     0
102
RTVSPropertyOp12
 70
     0
102
RTVSPropertyOp13
 70
     0
102
RTVSPropertyOp14
 70
     2
102
RTVSPropertyOp15
 70
     0
102
RTVSPropertyOp16
 70
     0
102
RTVSPropertyOp17
 70
     0
102
RTVSPropertyOp18
 70
     0
102
RTVSPropertyOp19
 70
     0
102
RTVSPropertyOp20
 70
     0
102
RTVSPropertyOp21
 70
     0
102
RTVSPropertyOp22
 70
     0
102
RTVSPropertyOp23
 70
     0
102
RTVSPropertyOp24
 70
     0
102
RTVSPropertyOp25
 70
     0
102
RTVSPropertyOp26
 70
     0
102
RTVSPropertyOp27
 70
     0
102
RTVSPropertyOp28
 70
     0
102
RTVSPropertyOp29
 70
     0
102
RTVSPropertyOp30
 70
     0
102
RTVSPropertyOp31
 70
     0
102
RTVSPropertyOp32
 70
     0
102
RTVSPropertyOp33
 70
     0
102
RTVSPropertyOp34
 70
     0
102
RTVSPropertyOp35
 70
     0
102
RTVSPropertyOp36
 70
     0
102
RTVSPropertyOp37
 70
     0
102
RTVSPropertyOp38
 70
     0
102
RTVSPropertyOp39
 70
     0
102
RTVSPropertyOp40
 70
     0
102
RTVSPropertyOp41
 70
     0
102
RTVSPropertyOp42
 70
     0
102
RTVSPropertyOp43
 70
     0
102
RTVSPropertyOp44
 70
     0
102
RTVSPropertyOp45
 70
     0
102
RTVSPropertyOp46
 70
     0
102
RTVSPropertyOp47
 70
     0
102
RTVSPropertyOp48
 70
     0
102
RTVSPropertyOp49
 70
     0
102
RTVSPropertyOp50
 70
     0
102
RTVSPropertyOp51
 70
     0
102
RTVSPropertyOp52
 70
     0
102
RTVSPropertyOp53
 70
     0
102
RTVSPropertyOp54
 70
     0
102
RTVSPropertyOp55
 70
     0
102
RTVSPropertyOp56
 70
     0
102
RTVSPropertyOp57
 70
     0
102
RTVSPost2010Prop28
280
     0
102
RTVSPost2010PropOp28
 70
     0
102
RTVSPost2010Prop29
280
     1
102
RTVSPost2010PropOp29
 70
     0
102
RTVSPost2010Prop30
280
     1
102
RTVSPost2010PropOp30
 70
     0
102
RTVSPost2010Prop31
280
     0
102
RTVSPost2010PropOp31
 70
     0
102
RTVSPost2010Prop32
280
     0
102
RTVSPost2010PropOp32
 70
     0
102
RTVSPost2010Prop33
280
     0
102
RTVSPost2010PropOp33
 70
     0
102
RTVSPost2010Prop34
280
     0
102
RTVSPost2010PropOp34
 70
     0
102
RTVSPost2010Prop35
280
     0
102
RTVSPost2010PropOp35
 70
     0
102
RTVSPost2010Prop36
280
     0
102
RTVSPost2010PropOp36
 70
     0
102
RTVSPost2010Prop37
 90
       50
102
RTVSPost2010PropOp37
 70
     0
102
RTVSPost2010Prop38
140
0.0
102
RTVSPost2010PropOp38
 70
     0
102
RTVSPost2010Prop39
140
1.0
102
RTVSPost2010PropOp39
 70
     0
102
RTVSPost2010Prop40
 90
        0
102
RTVSPost2010PropOp40
 70
     0
102
RTVSPost2010Prop41ColorIndex
 90
       18
102
RTVSPost2010Prop41ColorRGB
 90
        0
102
RTVSPost2010PropOp41
 70
     0
102
RTVSPost2010Prop42
 90
       50
102
RTVSPost2010PropOp42
 70
     0
102
RTVSPost2010Prop43
 90
        3
102
RTVSPost2010PropOp43
 70
     0
102
RTVSPost2010Prop44ColorIndex
 90
        5
102
RTVSPost2010Prop44ColorRGB
 90
      255
102
RTVSPost2010PropOp44
 70
     0
102
RTVSPost2010Prop45
280
     0
102
RTVSPost2010PropOp45
 70
     0
102
RTVSPost2010Prop46
 90
       50
102
RTVSPost2010PropOp46
 70
     0
102
RTVSPost2010Prop47
 90
       50
102
RTVSPost2010PropOp47
 70
     0
102
RTVSPost2010Prop48
 90
       50
102
RTVSPost2010PropOp48
 70
     0
102
RTVSPost2010Prop49
280
     0
102
RTVSPost2010PropOp49
 70
     0
102
RTVSPost2010Prop50
 90
       50
102
RTVSPost2010PropOp50
 70
     0
102
RTVSPost2010Prop51ColorIndex
 90
      256
102
RTVSPost2010Prop51ColorRGB
 90
-16777216
102
RTVSPost2010PropOp51
 70
     0
102
RTVSPost2010Prop52
140
1.0
102
RTVSPost2010PropOp52
 70
     0
102
RTVSPost2010Prop53
 90
        2
102
RTVSPost2010PropOp53
 70
     0
102
RTVSPost2010Prop54
  1
strokes_ogs.tif
102
RTVSPost2010PropOp54
 70
     0
102
RTVSPost2010Prop55
280
     0
102
RTVSPost2010PropOp55
 70
     0
102
RTVSPost2010Prop56
140
1.0
102
RTVSPost2010PropOp56
 70
     0
102
RTVSPost2010Prop57
140
1.0
102
RTVSPost2010PropOp57
 70
     0
  0
XRECORD
  5
218
102
{ACAD_REACTORS
330
217
102
}
330
217
100
AcDbXrecord
280
     1
102
RTVSPropertyOp0
 70
     1
102
RTVSPropertyOp1
 70
     1
102
RTVSPropertyOp2
 70
     1
102
RTVSPropertyOp3
 70
     1
102
RTVSPropertyOp4
 70
     1
102
RTVSPropertyOp5
 70
     1
102
RTVSPropertyOp6
 70
     1
102
RTVSPropertyOp7
 70
     1
102
RTVSPropertyOp8
 70
     1
102
RTVSPropertyOp9
 70
     1
102
RTVSPropertyOp10
 70
     1
102
RTVSPropertyOp11
 70
     1
102
RTVSPropertyOp12
 70
     1
102
RTVSPropertyOp13
 70
     1
102
RTVSPropertyOp14
 70
     1
102
RTVSPropertyOp15
 70
     1
102
RTVSPropertyOp16
 70
     1
102
RTVSPropertyOp17
 70
     1
102
RTVSPropertyOp18
 70
     1
102
RTVSPropertyOp19
 70
     1
102
RTVSPropertyOp20
 70
     1
102
RTVSPropertyOp21
 70
     1
102
RTVSPropertyOp22
 70
     1
102
RTVSPropertyOp23
 70
     1
102
RTVSPropertyOp24
 70
     1
102
RTVSPropertyOp25
 70
     1
102
RTVSPropertyOp26
 70
     1
102
RTVSPropertyOp27
 70
     1
102
RTVSPropertyOp28
 70
     1
102
RTVSPropertyOp29
 70
     1
102
RTVSPropertyOp30
 70
     1
102
RTVSPropertyOp31
 70
     1
102
RTVSPropertyOp32
 70
     1
102
RTVSPropertyOp33
 70
     1
102
RTVSPropertyOp34
 70
     1
102
RTVSPropertyOp35
 70
     1
102
RTVSPropertyOp36
 70
     1
102
RTVSPropertyOp37
 70
     1
102
RTVSPropertyOp38
 70
     1
102
RTVSPropertyOp39
 70
     1
102
RTVSPropertyOp40
 70
     1
102
RTVSPropertyOp41
 70
     1
102
RTVSPropertyOp42
 70
     1
102
RTVSPropertyOp43
 70
     1
102
RTVSPropertyOp44
 70
     1
102
RTVSPropertyOp45
 70
     1
102
RTVSPropertyOp46
 70
     1
102
RTVSPropertyOp47
 70
     1
102
RTVSPropertyOp48
 70
     1
102
RTVSPropertyOp49
 70
     1
102
RTVSPropertyOp50
 70
     1
102
RTVSPropertyOp51
 70
     0
102
RTVSPropertyOp52
 70
     0
102
RTVSPropertyOp53
 70
     1
102
RTVSPropertyOp54
 70
     1
102
RTVSPropertyOp55
 70
     1
102
RTVSPropertyOp56
 70
     1
102
RTVSPropertyOp57
 70
     1
102
RTVSPost2010Prop28
280
     0
102
RTVSPost2010PropOp28
 70
     1
102
RTVSPost2010Prop29
280
     1
102
RTVSPost2010PropOp29
 70
     1
102
RTVSPost2010Prop30
280
     1
102
RTVSPost2010PropOp30
 70
     1
102
RTVSPost2010Prop31
280
     0
102
RTVSPost2010PropOp31
 70
     1
102
RTVSPost2010Prop32
280
     0
102
RTVSPost2010PropOp32
 70
     1
102
RTVSPost2010Prop33
280
     0
102
RTVSPost2010PropOp33
 70
     1
102
RTVSPost2010Prop34
280
     0
102
RTVSPost2010PropOp34
 70
     1
102
RTVSPost2010Prop35
280
     0
102
RTVSPost2010PropOp35
 70
     1
102
RTVSPost2010Prop36
280
     0
102
RTVSPost2010PropOp36
 70
     1
102
RTVSPost2010Prop37
 90
       50
102
RTVSPost2010PropOp37
 70
     1
102
RTVSPost2010Prop38
140
0.0
102
RTVSPost2010PropOp38
 70
     1
102
RTVSPost2010Prop39
140
1.0
102
RTVSPost2010PropOp39
 70
     1
102
RTVSPost2010Prop40
 90
        0
102
RTVSPost2010PropOp40
 70
     1
102
RTVSPost2010Prop41ColorIndex
 90
       18
102
RTVSPost2010Prop41ColorRGB
 90
        0
102
RTVSPost2010PropOp41
 70
     1
102
RTVSPost2010Prop42
 90
       50
102
RTVSPost2010PropOp42
 70
     1
102
RTVSPost2010Prop43
 90
        3
102
RTVSPost2010PropOp43
 70
     1
102
RTVSPost2010Prop44ColorIndex
 90
        5
102
RTVSPost2010Prop44ColorRGB
 90
      255
102
RTVSPost2010PropOp44
 70
     1
102
RTVSPost2010Prop45
280
     0
102
RTVSPost2010PropOp45
 70
     1
102
RTVSPost2010Prop46
 90
       50
102
RTVSPost2010PropOp46
 70
     1
102
RTVSPost2010Prop47
 90
       50
102
RTVSPost2010PropOp47
 70
     1
102
RTVSPost2010Prop48
 90
       50
102
RTVSPost2010PropOp48
 70
     1
102
RTVSPost2010Prop49
280
     0
102
RTVSPost2010PropOp49
 70
     1
102
RTVSPost2010Prop50
 90
       50
102
RTVSPost2010PropOp50
 70
     1
102
RTVSPost2010Prop51ColorIndex
 90
      256
102
RTVSPost2010Prop51ColorRGB
 90
-16777216
102
RTVSPost2010PropOp51
 70
     0
102
RTVSPost2010Prop52
140
1.0
102
RTVSPost2010PropOp52
 70
     0
102
RTVSPost2010Prop53
 90
        2
102
RTVSPost2010PropOp53
 70
     1
102
RTVSPost2010Prop54
  1
strokes_ogs.tif
102
RTVSPost2010PropOp54
 70
     1
102
RTVSPost2010Prop55
280
     0
102
RTVSPost2010PropOp55
 70
     1
102
RTVSPost2010Prop56
140
1.0
102
RTVSPost2010PropOp56
 70
     1
102
RTVSPost2010Prop57
140
1.0
102
RTVSPost2010PropOp57
 70
     1
  0
XRECORD
  5
1FC
102
{ACAD_REACTORS
330
1FB
102
}
330
1FB
100
AcDbXrecord
280
     1
102
RTVSPropertyOp0
 70
     1
102
RTVSPropertyOp1
 70
     1
102
RTVSPropertyOp2
 70
     1
102
RTVSPropertyOp3
 70
     1
102
RTVSPropertyOp4
 70
     1
102
RTVSPropertyOp5
 70
     1
102
RTVSPropertyOp6
 70
     1
102
RTVSPropertyOp7
 70
     1
102
RTVSPropertyOp8
 70
     1
102
RTVSPropertyOp9
 70
     1
102
RTVSPropertyOp10
 70
     1
102
RTVSPropertyOp11
 70
     1
102
RTVSPropertyOp12
 70
     1
102
RTVSPropertyOp13
 70
     1
102
RTVSPropertyOp14
 70
     1
102
RTVSPropertyOp15
 70
     1
102
RTVSPropertyOp16
 70
     1
102
RTVSPropertyOp17
 70
     1
102
RTVSPropertyOp18
 70
     1
102
RTVSPropertyOp19
 70
     1
102
RTVSPropertyOp20
 70
     1
102
RTVSPropertyOp21
 70
     1
102
RTVSPropertyOp22
 70
     1
102
RTVSPropertyOp23
 70
     1
102
RTVSPropertyOp24
 70
     1
102
RTVSPropertyOp25
 70
     1
102
RTVSPropertyOp26
 70
     1
102
RTVSPropertyOp27
 70
     1
102
RTVSPropertyOp28
 70
     1
102
RTVSPropertyOp29
 70
     1
102
RTVSPropertyOp30
 70
     1
102
RTVSPropertyOp31
 70
     1
102
RTVSPropertyOp32
 70
     1
102
RTVSPropertyOp33
 70
     1
102
RTVSPropertyOp34
 70
     1
102
RTVSPropertyOp35
 70
     1
102
RTVSPropertyOp36
 70
     1
102
RTVSPropertyOp37
 70
     1
102
RTVSPropertyOp38
 70
     1
102
RTVSPropertyOp39
 70
     1
102
RTVSPropertyOp40
 70
     1
102
RTVSPropertyOp41
 70
     1
102
RTVSPropertyOp42
 70
     1
102
RTVSPropertyOp43
 70
     1
102
RTVSPropertyOp44
 70
     1
102
RTVSPropertyOp45
 70
     1
102
RTVSPropertyOp46
 70
     1
102
RTVSPropertyOp47
 70
     1
102
RTVSPropertyOp48
 70
     1
102
RTVSPropertyOp49
 70
     1
102
RTVSPropertyOp50
 70
     1
102
RTVSPropertyOp51
 70
     0
102
RTVSPropertyOp52
 70
     0
102
RTVSPropertyOp53
 70
     1
102
RTVSPropertyOp54
 70
     1
102
RTVSPropertyOp55
 70
     1
102
RTVSPropertyOp56
 70
     1
102
RTVSPropertyOp57
 70
     1
102
RTVSPost2010Prop28
280
     0
102
RTVSPost2010PropOp28
 70
     1
102
RTVSPost2010Prop29
280
     1
102
RTVSPost2010PropOp29
 70
     1
102
RTVSPost2010Prop30
280
     1
102
RTVSPost2010PropOp30
 70
     1
102
RTVSPost2010Prop31
280
     0
102
RTVSPost2010PropOp31
 70
     1
102
RTVSPost2010Prop32
280
     0
102
RTVSPost2010PropOp32
 70
     1
102
RTVSPost2010Prop33
280
     0
102
RTVSPost2010PropOp33
 70
     1
102
RTVSPost2010Prop34
280
     0
102
RTVSPost2010PropOp34
 70
     1
102
RTVSPost2010Prop35
280
     0
102
RTVSPost2010PropOp35
 70
     1
102
RTVSPost2010Prop36
280
     0
102
RTVSPost2010PropOp36
 70
     1
102
RTVSPost2010Prop37
 90
       50
102
RTVSPost2010PropOp37
 70
     1
102
RTVSPost2010Prop38
140
0.0
102
RTVSPost2010PropOp38
 70
     1
102
RTVSPost2010Prop39
140
1.0
102
RTVSPost2010PropOp39
 70
     1
102
RTVSPost2010Prop40
 90
        0
102
RTVSPost2010PropOp40
 70
     1
102
RTVSPost2010Prop41ColorIndex
 90
       18
102
RTVSPost2010Prop41ColorRGB
 90
        0
102
RTVSPost2010PropOp41
 70
     1
102
RTVSPost2010Prop42
 90
       50
102
RTVSPost2010PropOp42
 70
     1
102
RTVSPost2010Prop43
 90
        3
102
RTVSPost2010PropOp43
 70
     1
102
RTVSPost2010Prop44ColorIndex
 90
        5
102
RTVSPost2010Prop44ColorRGB
 90
      255
102
RTVSPost2010PropOp44
 70
     1
102
RTVSPost2010Prop45
280
     0
102
RTVSPost2010PropOp45
 70
     1
102
RTVSPost2010Prop46
 90
       50
102
RTVSPost2010PropOp46
 70
     1
102
RTVSPost2010Prop47
 90
       50
102
RTVSPost2010PropOp47
 70
     1
102
RTVSPost2010Prop48
 90
       50
102
RTVSPost2010PropOp48
 70
     1
102
RTVSPost2010Prop49
280
     0
102
RTVSPost2010PropOp49
 70
     1
102
RTVSPost2010Prop50
 90
       50
102
RTVSPost2010PropOp50
 70
     1
102
RTVSPost2010Prop51ColorIndex
 90
      256
102
RTVSPost2010Prop51ColorRGB
 90
-16777216
102
RTVSPost2010PropOp51
 70
     0
102
RTVSPost2010Prop52
140
1.0
102
RTVSPost2010PropOp52
 70
     0
102
RTVSPost2010Prop53
 90
        2
102
RTVSPost2010PropOp53
 70
     1
102
RTVSPost2010Prop54
  1
strokes_ogs.tif
102
RTVSPost2010PropOp54
 70
     1
102
RTVSPost2010Prop55
280
     0
102
RTVSPost2010PropOp55
 70
     1
102
RTVSPost2010Prop56
140
1.0
102
RTVSPost2010PropOp56
 70
     1
102
RTVSPost2010Prop57
140
1.0
102
RTVSPost2010PropOp57
 70
     1
  0
XRECORD
  5
1FE
102
{ACAD_REACTORS
330
1FD
102
}
330
1FD
100
AcDbXrecord
280
     1
102
RTVSPropertyOp0
 70
     1
102
RTVSPropertyOp1
 70
     1
102
RTVSPropertyOp2
 70
     1
102
RTVSPropertyOp3
 70
     1
102
RTVSPropertyOp4
 70
     1
102
RTVSPropertyOp5
 70
     1
102
RTVSPropertyOp6
 70
     1
102
RTVSPropertyOp7
 70
     1
102
RTVSPropertyOp8
 70
     1
102
RTVSPropertyOp9
 70
     1
102
RTVSPropertyOp10
 70
     1
102
RTVSPropertyOp11
 70
     1
102
RTVSPropertyOp12
 70
     1
102
RTVSPropertyOp13
 70
     1
102
RTVSPropertyOp14
 70
     1
102
RTVSPropertyOp15
 70
     1
102
RTVSPropertyOp16
 70
     1
102
RTVSPropertyOp17
 70
     1
102
RTVSPropertyOp18
 70
     1
102
RTVSPropertyOp19
 70
     1
102
RTVSPropertyOp20
 70
     1
102
RTVSPropertyOp21
 70
     1
102
RTVSPropertyOp22
 70
     1
102
RTVSPropertyOp23
 70
     1
102
RTVSPropertyOp24
 70
     1
102
RTVSPropertyOp25
 70
     1
102
RTVSPropertyOp26
 70
     1
102
RTVSPropertyOp27
 70
     1
102
RTVSPropertyOp28
 70
     1
102
RTVSPropertyOp29
 70
     1
102
RTVSPropertyOp30
 70
     1
102
RTVSPropertyOp31
 70
     1
102
RTVSPropertyOp32
 70
     1
102
RTVSPropertyOp33
 70
     1
102
RTVSPropertyOp34
 70
     1
102
RTVSPropertyOp35
 70
     1
102
RTVSPropertyOp36
 70
     1
102
RTVSPropertyOp37
 70
     1
102
RTVSPropertyOp38
 70
     1
102
RTVSPropertyOp39
 70
     1
102
RTVSPropertyOp40
 70
     1
102
RTVSPropertyOp41
 70
     1
102
RTVSPropertyOp42
 70
     1
102
RTVSPropertyOp43
 70
     1
102
RTVSPropertyOp44
 70
     1
102
RTVSPropertyOp45
 70
     1
102
RTVSPropertyOp46
 70
     1
102
RTVSPropertyOp47
 70
     1
102
RTVSPropertyOp48
 70
     1
102
RTVSPropertyOp49
 70
     1
102
RTVSPropertyOp50
 70
     1
102
RTVSPropertyOp51
 70
     0
102
RTVSPropertyOp52
 70
     0
102
RTVSPropertyOp53
 70
     1
102
RTVSPropertyOp54
 70
     1
102
RTVSPropertyOp55
 70
     1
102
RTVSPropertyOp56
 70
     1
102
RTVSPropertyOp57
 70
     1
102
RTVSPost2010Prop28
280
     0
102
RTVSPost2010PropOp28
 70
     1
102
RTVSPost2010Prop29
280
     1
102
RTVSPost2010PropOp29
 70
     1
102
RTVSPost2010Prop30
280
     1
102
RTVSPost2010PropOp30
 70
     1
102
RTVSPost2010Prop31
280
     0
102
RTVSPost2010PropOp31
 70
     1
102
RTVSPost2010Prop32
280
     0
102
RTVSPost2010PropOp32
 70
     1
102
RTVSPost2010Prop33
280
     0
102
RTVSPost2010PropOp33
 70
     1
102
RTVSPost2010Prop34
280
     0
102
RTVSPost2010PropOp34
 70
     1
102
RTVSPost2010Prop35
280
     0
102
RTVSPost2010PropOp35
 70
     1
102
RTVSPost2010Prop36
280
     0
102
RTVSPost2010PropOp36
 70
     1
102
RTVSPost2010Prop37
 90
       50
102
RTVSPost2010PropOp37
 70
     1
102
RTVSPost2010Prop38
140
0.0
102
RTVSPost2010PropOp38
 70
     1
102
RTVSPost2010Prop39
140
1.0
102
RTVSPost2010PropOp39
 70
     1
102
RTVSPost2010Prop40
 90
        0
102
RTVSPost2010PropOp40
 70
     1
102
RTVSPost2010Prop41ColorIndex
 90
       18
102
RTVSPost2010Prop41ColorRGB
 90
        0
102
RTVSPost2010PropOp41
 70
     1
102
RTVSPost2010Prop42
 90
       50
102
RTVSPost2010PropOp42
 70
     1
102
RTVSPost2010Prop43
 90
        3
102
RTVSPost2010PropOp43
 70
     1
102
RTVSPost2010Prop44ColorIndex
 90
        5
102
RTVSPost2010Prop44ColorRGB
 90
      255
102
RTVSPost2010PropOp44
 70
     1
102
RTVSPost2010Prop45
280
     0
102
RTVSPost2010PropOp45
 70
     1
102
RTVSPost2010Prop46
 90
       50
102
RTVSPost2010PropOp46
 70
     1
102
RTVSPost2010Prop47
 90
       50
102
RTVSPost2010PropOp47
 70
     1
102
RTVSPost2010Prop48
 90
       50
102
RTVSPost2010PropOp48
 70
     1
102
RTVSPost2010Prop49
280
     0
102
RTVSPost2010PropOp49
 70
     1
102
RTVSPost2010Prop50
 90
       50
102
RTVSPost2010PropOp50
 70
     1
102
RTVSPost2010Prop51ColorIndex
 90
      256
102
RTVSPost2010Prop51ColorRGB
 90
-16777216
102
RTVSPost2010PropOp51
 70
     0
102
RTVSPost2010Prop52
140
1.0
102
RTVSPost2010PropOp52
 70
     0
102
RTVSPost2010Prop53
 90
        2
102
RTVSPost2010PropOp53
 70
     1
102
RTVSPost2010Prop54
  1
strokes_ogs.tif
102
RTVSPost2010PropOp54
 70
     1
102
RTVSPost2010Prop55
280
     0
102
RTVSPost2010PropOp55
 70
     1
102
RTVSPost2010Prop56
140
1.0
102
RTVSPost2010PropOp56
 70
     1
102
RTVSPost2010Prop57
140
1.0
102
RTVSPost2010PropOp57
 70
     1
  0
XRECORD
  5
200
102
{ACAD_REACTORS
330
1FF
102
}
330
1FF
100
AcDbXrecord
280
     1
102
RTVSPropertyOp0
 70
     1
102
RTVSPropertyOp1
 70
     1
102
RTVSPropertyOp2
 70
     1
102
RTVSPropertyOp3
 70
     1
102
RTVSPropertyOp4
 70
     1
102
RTVSPropertyOp5
 70
     1
102
RTVSPropertyOp6
 70
     1
102
RTVSPropertyOp7
 70
     1
102
RTVSPropertyOp8
 70
     1
102
RTVSPropertyOp9
 70
     1
102
RTVSPropertyOp10
 70
     1
102
RTVSPropertyOp11
 70
     1
102
RTVSPropertyOp12
 70
     1
102
RTVSPropertyOp13
 70
     1
102
RTVSPropertyOp14
 70
     1
102
RTVSPropertyOp15
 70
     1
102
RTVSPropertyOp16
 70
     1
102
RTVSPropertyOp17
 70
     1
102
RTVSPropertyOp18
 70
     1
102
RTVSPropertyOp19
 70
     1
102
RTVSPropertyOp20
 70
     1
102
RTVSPropertyOp21
 70
     1
102
RTVSPropertyOp22
 70
     1
102
RTVSPropertyOp23
 70
     1
102
RTVSPropertyOp24
 70
     1
102
RTVSPropertyOp25
 70
     1
102
RTVSPropertyOp26
 70
     1
102
RTVSPropertyOp27
 70
     1
102
RTVSPropertyOp28
 70
     1
102
RTVSPropertyOp29
 70
     1
102
RTVSPropertyOp30
 70
     1
102
RTVSPropertyOp31
 70
     1
102
RTVSPropertyOp32
 70
     1
102
RTVSPropertyOp33
 70
     1
102
RTVSPropertyOp34
 70
     1
102
RTVSPropertyOp35
 70
     1
102
RTVSPropertyOp36
 70
     1
102
RTVSPropertyOp37
 70
     1
102
RTVSPropertyOp38
 70
     1
102
RTVSPropertyOp39
 70
     1
102
RTVSPropertyOp40
 70
     1
102
RTVSPropertyOp41
 70
     1
102
RTVSPropertyOp42
 70
     1
102
RTVSPropertyOp43
 70
     1
102
RTVSPropertyOp44
 70
     1
102
RTVSPropertyOp45
 70
     1
102
RTVSPropertyOp46
 70
     1
102
RTVSPropertyOp47
 70
     1
102
RTVSPropertyOp48
 70
     1
102
RTVSPropertyOp49
 70
     1
102
RTVSPropertyOp50
 70
     1
102
RTVSPropertyOp51
 70
     0
102
RTVSPropertyOp52
 70
     0
102
RTVSPropertyOp53
 70
     1
102
RTVSPropertyOp54
 70
     1
102
RTVSPropertyOp55
 70
     1
102
RTVSPropertyOp56
 70
     1
102
RTVSPropertyOp57
 70
     1
102
RTVSPost2010Prop28
280
     0
102
RTVSPost2010PropOp28
 70
     1
102
RTVSPost2010Prop29
280
     1
102
RTVSPost2010PropOp29
 70
     1
102
RTVSPost2010Prop30
280
     1
102
RTVSPost2010PropOp30
 70
     1
102
RTVSPost2010Prop31
280
     0
102
RTVSPost2010PropOp31
 70
     1
102
RTVSPost2010Prop32
280
     0
102
RTVSPost2010PropOp32
 70
     1
102
RTVSPost2010Prop33
280
     0
102
RTVSPost2010PropOp33
 70
     1
102
RTVSPost2010Prop34
280
     0
102
RTVSPost2010PropOp34
 70
     1
102
RTVSPost2010Prop35
280
     0
102
RTVSPost2010PropOp35
 70
     1
102
RTVSPost2010Prop36
280
     0
102
RTVSPost2010PropOp36
 70
     1
102
RTVSPost2010Prop37
 90
       50
102
RTVSPost2010PropOp37
 70
     1
102
RTVSPost2010Prop38
140
0.0
102
RTVSPost2010PropOp38
 70
     1
102
RTVSPost2010Prop39
140
1.0
102
RTVSPost2010PropOp39
 70
     1
102
RTVSPost2010Prop40
 90
        0
102
RTVSPost2010PropOp40
 70
     1
102
RTVSPost2010Prop41ColorIndex
 90
       18
102
RTVSPost2010Prop41ColorRGB
 90
        0
102
RTVSPost2010PropOp41
 70
     1
102
RTVSPost2010Prop42
 90
       50
102
RTVSPost2010PropOp42
 70
     1
102
RTVSPost2010Prop43
 90
        3
102
RTVSPost2010PropOp43
 70
     1
102
RTVSPost2010Prop44ColorIndex
 90
        5
102
RTVSPost2010Prop44ColorRGB
 90
      255
102
RTVSPost2010PropOp44
 70
     1
102
RTVSPost2010Prop45
280
     0
102
RTVSPost2010PropOp45
 70
     1
102
RTVSPost2010Prop46
 90
       50
102
RTVSPost2010PropOp46
 70
     1
102
RTVSPost2010Prop47
 90
       50
102
RTVSPost2010PropOp47
 70
     1
102
RTVSPost2010Prop48
 90
       50
102
RTVSPost2010PropOp48
 70
     1
102
RTVSPost2010Prop49
280
     0
102
RTVSPost2010PropOp49
 70
     1
102
RTVSPost2010Prop50
 90
       50
102
RTVSPost2010PropOp50
 70
     1
102
RTVSPost2010Prop51ColorIndex
 90
      256
102
RTVSPost2010Prop51ColorRGB
 90
-16777216
102
RTVSPost2010PropOp51
 70
     0
102
RTVSPost2010Prop52
140
1.0
102
RTVSPost2010PropOp52
 70
     0
102
RTVSPost2010Prop53
 90
        2
102
RTVSPost2010PropOp53
 70
     1
102
RTVSPost2010Prop54
  1
strokes_ogs.tif
102
RTVSPost2010PropOp54
 70
     1
102
RTVSPost2010Prop55
280
     0
102
RTVSPost2010PropOp55
 70
     1
102
RTVSPost2010Prop56
140
1.0
102
RTVSPost2010PropOp56
 70
     1
102
RTVSPost2010Prop57
140
1.0
102
RTVSPost2010PropOp57
 70
     1
  0
XRECORD
  5
202
102
{ACAD_REACTORS
330
201
102
}
330
201
100
AcDbXrecord
280
     1
102
RTVSPropertyOp0
 70
     1
102
RTVSPropertyOp1
 70
     1
102
RTVSPropertyOp2
 70
     1
102
RTVSPropertyOp3
 70
     1
102
RTVSPropertyOp4
 70
     1
102
RTVSPropertyOp5
 70
     1
102
RTVSPropertyOp6
 70
     1
102
RTVSPropertyOp7
 70
     1
102
RTVSPropertyOp8
 70
     1
102
RTVSPropertyOp9
 70
     1
102
RTVSPropertyOp10
 70
     1
102
RTVSPropertyOp11
 70
     1
102
RTVSPropertyOp12
 70
     1
102
RTVSPropertyOp13
 70
     1
102
RTVSPropertyOp14
 70
     1
102
RTVSPropertyOp15
 70
     1
102
RTVSPropertyOp16
 70
     1
102
RTVSPropertyOp17
 70
     1
102
RTVSPropertyOp18
 70
     1
102
RTVSPropertyOp19
 70
     1
102
RTVSPropertyOp20
 70
     1
102
RTVSPropertyOp21
 70
     1
102
RTVSPropertyOp22
 70
     1
102
RTVSPropertyOp23
 70
     1
102
RTVSPropertyOp24
 70
     1
102
RTVSPropertyOp25
 70
     1
102
RTVSPropertyOp26
 70
     1
102
RTVSPropertyOp27
 70
     1
102
RTVSPropertyOp28
 70
     1
102
RTVSPropertyOp29
 70
     1
102
RTVSPropertyOp30
 70
     1
102
RTVSPropertyOp31
 70
     1
102
RTVSPropertyOp32
 70
     1
102
RTVSPropertyOp33
 70
     1
102
RTVSPropertyOp34
 70
     1
102
RTVSPropertyOp35
 70
     1
102
RTVSPropertyOp36
 70
     1
102
RTVSPropertyOp37
 70
     1
102
RTVSPropertyOp38
 70
     1
102
RTVSPropertyOp39
 70
     1
102
RTVSPropertyOp40
 70
     1
102
RTVSPropertyOp41
 70
     1
102
RTVSPropertyOp42
 70
     1
102
RTVSPropertyOp43
 70
     1
102
RTVSPropertyOp44
 70
     1
102
RTVSPropertyOp45
 70
     1
102
RTVSPropertyOp46
 70
     1
102
RTVSPropertyOp47
 70
     1
102
RTVSPropertyOp48
 70
     1
102
RTVSPropertyOp49
 70
     1
102
RTVSPropertyOp50
 70
     1
102
RTVSPropertyOp51
 70
     0
102
RTVSPropertyOp52
 70
     0
102
RTVSPropertyOp53
 70
     1
102
RTVSPropertyOp54
 70
     1
102
RTVSPropertyOp55
 70
     1
102
RTVSPropertyOp56
 70
     1
102
RTVSPropertyOp57
 70
     1
102
RTVSPost2010Prop28
280
     0
102
RTVSPost2010PropOp28
 70
     1
102
RTVSPost2010Prop29
280
     1
102
RTVSPost2010PropOp29
 70
     1
102
RTVSPost2010Prop30
280
     1
102
RTVSPost2010PropOp30
 70
     1
102
RTVSPost2010Prop31
280
     0
102
RTVSPost2010PropOp31
 70
     1
102
RTVSPost2010Prop32
280
     0
102
RTVSPost2010PropOp32
 70
     1
102
RTVSPost2010Prop33
280
     0
102
RTVSPost2010PropOp33
 70
     1
102
RTVSPost2010Prop34
280
     0
102
RTVSPost2010PropOp34
 70
     1
102
RTVSPost2010Prop35
280
     0
102
RTVSPost2010PropOp35
 70
     1
102
RTVSPost2010Prop36
280
     0
102
RTVSPost2010PropOp36
 70
     1
102
RTVSPost2010Prop37
 90
       50
102
RTVSPost2010PropOp37
 70
     1
102
RTVSPost2010Prop38
140
0.0
102
RTVSPost2010PropOp38
 70
     1
102
RTVSPost2010Prop39
140
1.0
102
RTVSPost2010PropOp39
 70
     1
102
RTVSPost2010Prop40
 90
        0
102
RTVSPost2010PropOp40
 70
     1
102
RTVSPost2010Prop41ColorIndex
 90
       18
102
RTVSPost2010Prop41ColorRGB
 90
        0
102
RTVSPost2010PropOp41
 70
     1
102
RTVSPost2010Prop42
 90
       50
102
RTVSPost2010PropOp42
 70
     1
102
RTVSPost2010Prop43
 90
        3
102
RTVSPost2010PropOp43
 70
     1
102
RTVSPost2010Prop44ColorIndex
 90
        5
102
RTVSPost2010Prop44ColorRGB
 90
      255
102
RTVSPost2010PropOp44
 70
     1
102
RTVSPost2010Prop45
280
     0
102
RTVSPost2010PropOp45
 70
     1
102
RTVSPost2010Prop46
 90
       50
102
RTVSPost2010PropOp46
 70
     1
102
RTVSPost2010Prop47
 90
       50
102
RTVSPost2010PropOp47
 70
     1
102
RTVSPost2010Prop48
 90
       50
102
RTVSPost2010PropOp48
 70
     1
102
RTVSPost2010Prop49
280
     0
102
RTVSPost2010PropOp49
 70
     1
102
RTVSPost2010Prop50
 90
       50
102
RTVSPost2010PropOp50
 70
     1
102
RTVSPost2010Prop51ColorIndex
 90
      256
102
RTVSPost2010Prop51ColorRGB
 90
-16777216
102
RTVSPost2010PropOp51
 70
     0
102
RTVSPost2010Prop52
140
1.0
102
RTVSPost2010PropOp52
 70
     0
102
RTVSPost2010Prop53
 90
        2
102
RTVSPost2010PropOp53
 70
     1
102
RTVSPost2010Prop54
  1
strokes_ogs.tif
102
RTVSPost2010PropOp54
 70
     1
102
RTVSPost2010Prop55
280
     0
102
RTVSPost2010PropOp55
 70
     1
102
RTVSPost2010Prop56
140
1.0
102
RTVSPost2010PropOp56
 70
     1
102
RTVSPost2010Prop57
140
1.0
102
RTVSPost2010PropOp57
 70
     1
  0
XRECORD
  5
208
102
{ACAD_REACTORS
330
207
102
}
330
207
100
AcDbXrecord
280
     1
102
RTVSPropertyOp0
 70
     1
102
RTVSPropertyOp1
 70
     1
102
RTVSPropertyOp2
 70
     1
102
RTVSPropertyOp3
 70
     1
102
RTVSPropertyOp4
 70
     1
102
RTVSPropertyOp5
 70
     1
102
RTVSPropertyOp6
 70
     1
102
RTVSPropertyOp7
 70
     1
102
RTVSPropertyOp8
 70
     1
102
RTVSPropertyOp9
 70
     1
102
RTVSPropertyOp10
 70
     1
102
RTVSPropertyOp11
 70
     1
102
RTVSPropertyOp12
 70
     1
102
RTVSPropertyOp13
 70
     1
102
RTVSPropertyOp14
 70
     1
102
RTVSPropertyOp15
 70
     1
102
RTVSPropertyOp16
 70
     1
102
RTVSPropertyOp17
 70
     1
102
RTVSPropertyOp18
 70
     1
102
RTVSPropertyOp19
 70
     1
102
RTVSPropertyOp20
 70
     1
102
RTVSPropertyOp21
 70
     1
102
RTVSPropertyOp22
 70
     1
102
RTVSPropertyOp23
 70
     1
102
RTVSPropertyOp24
 70
     1
102
RTVSPropertyOp25
 70
     1
102
RTVSPropertyOp26
 70
     1
102
RTVSPropertyOp27
 70
     1
102
RTVSPropertyOp28
 70
     1
102
RTVSPropertyOp29
 70
     1
102
RTVSPropertyOp30
 70
     1
102
RTVSPropertyOp31
 70
     1
102
RTVSPropertyOp32
 70
     1
102
RTVSPropertyOp33
 70
     1
102
RTVSPropertyOp34
 70
     1
102
RTVSPropertyOp35
 70
     1
102
RTVSPropertyOp36
 70
     1
102
RTVSPropertyOp37
 70
     1
102
RTVSPropertyOp38
 70
     1
102
RTVSPropertyOp39
 70
     1
102
RTVSPropertyOp40
 70
     1
102
RTVSPropertyOp41
 70
     1
102
RTVSPropertyOp42
 70
     1
102
RTVSPropertyOp43
 70
     1
102
RTVSPropertyOp44
 70
     1
102
RTVSPropertyOp45
 70
     1
102
RTVSPropertyOp46
 70
     1
102
RTVSPropertyOp47
 70
     1
102
RTVSPropertyOp48
 70
     1
102
RTVSPropertyOp49
 70
     1
102
RTVSPropertyOp50
 70
     1
102
RTVSPropertyOp51
 70
     0
102
RTVSPropertyOp52
 70
     0
102
RTVSPropertyOp53
 70
     1
102
RTVSPropertyOp54
 70
     1
102
RTVSPropertyOp55
 70
     1
102
RTVSPropertyOp56
 70
     1
102
RTVSPropertyOp57
 70
     1
102
RTVSPost2010Prop28
280
     0
102
RTVSPost2010PropOp28
 70
     1
102
RTVSPost2010Prop29
280
     1
102
RTVSPost2010PropOp29
 70
     1
102
RTVSPost2010Prop30
280
     1
102
RTVSPost2010PropOp30
 70
     1
102
RTVSPost2010Prop31
280
     0
102
RTVSPost2010PropOp31
 70
     1
102
RTVSPost2010Prop32
280
     0
102
RTVSPost2010PropOp32
 70
     1
102
RTVSPost2010Prop33
280
     0
102
RTVSPost2010PropOp33
 70
     1
102
RTVSPost2010Prop34
280
     0
102
RTVSPost2010PropOp34
 70
     1
102
RTVSPost2010Prop35
280
     0
102
RTVSPost2010PropOp35
 70
     1
102
RTVSPost2010Prop36
280
     0
102
RTVSPost2010PropOp36
 70
     1
102
RTVSPost2010Prop37
 90
       50
102
RTVSPost2010PropOp37
 70
     1
102
RTVSPost2010Prop38
140
0.0
102
RTVSPost2010PropOp38
 70
     1
102
RTVSPost2010Prop39
140
1.0
102
RTVSPost2010PropOp39
 70
     1
102
RTVSPost2010Prop40
 90
        0
102
RTVSPost2010PropOp40
 70
     1
102
RTVSPost2010Prop41ColorIndex
 90
       18
102
RTVSPost2010Prop41ColorRGB
 90
        0
102
RTVSPost2010PropOp41
 70
     1
102
RTVSPost2010Prop42
 90
       50
102
RTVSPost2010PropOp42
 70
     1
102
RTVSPost2010Prop43
 90
        3
102
RTVSPost2010PropOp43
 70
     1
102
RTVSPost2010Prop44ColorIndex
 90
        5
102
RTVSPost2010Prop44ColorRGB
 90
      255
102
RTVSPost2010PropOp44
 70
     1
102
RTVSPost2010Prop45
280
     0
102
RTVSPost2010PropOp45
 70
     1
102
RTVSPost2010Prop46
 90
       50
102
RTVSPost2010PropOp46
 70
     1
102
RTVSPost2010Prop47
 90
       50
102
RTVSPost2010PropOp47
 70
     1
102
RTVSPost2010Prop48
 90
       50
102
RTVSPost2010PropOp48
 70
     1
102
RTVSPost2010Prop49
280
     0
102
RTVSPost2010PropOp49
 70
     1
102
RTVSPost2010Prop50
 90
       50
102
RTVSPost2010PropOp50
 70
     1
102
RTVSPost2010Prop51ColorIndex
 90
      256
102
RTVSPost2010Prop51ColorRGB
 90
-16777216
102
RTVSPost2010PropOp51
 70
     0
102
RTVSPost2010Prop52
140
1.0
102
RTVSPost2010PropOp52
 70
     0
102
RTVSPost2010Prop53
 90
        2
102
RTVSPost2010PropOp53
 70
     1
102
RTVSPost2010Prop54
  1
strokes_ogs.tif
102
RTVSPost2010PropOp54
 70
     1
102
RTVSPost2010Prop55
280
     0
102
RTVSPost2010PropOp55
 70
     1
102
RTVSPost2010Prop56
140
1.0
102
RTVSPost2010PropOp56
 70
     1
102
RTVSPost2010Prop57
140
1.0
102
RTVSPost2010PropOp57
 70
     1
  0
XRECORD
  5
21C
102
{ACAD_REACTORS
330
21B
102
}
330
21B
100
AcDbXrecord
280
     1
102
RTVSPropertyOp0
 70
     0
102
RTVSPropertyOp1
 70
     0
102
RTVSPropertyOp2
 70
     0
102
RTVSPropertyOp3
 70
     0
102
RTVSPropertyOp4
 70
     0
102
RTVSPropertyOp5
 70
     0
102
RTVSPropertyOp6
 70
     0
102
RTVSPropertyOp7
 70
     0
102
RTVSPropertyOp8
 70
     0
102
RTVSPropertyOp9
 70
     0
102
RTVSPropertyOp10
 70
     0
102
RTVSPropertyOp11
 70
     0
102
RTVSPropertyOp12
 70
     0
102
RTVSPropertyOp13
 70
     0
102
RTVSPropertyOp14
 70
     2
102
RTVSPropertyOp15
 70
     0
102
RTVSPropertyOp16
 70
     0
102
RTVSPropertyOp17
 70
     0
102
RTVSPropertyOp18
 70
     0
102
RTVSPropertyOp19
 70
     0
102
RTVSPropertyOp20
 70
     0
102
RTVSPropertyOp21
 70
     0
102
RTVSPropertyOp22
 70
     0
102
RTVSPropertyOp23
 70
     0
102
RTVSPropertyOp24
 70
     0
102
RTVSPropertyOp25
 70
     0
102
RTVSPropertyOp26
 70
     0
102
RTVSPropertyOp27
 70
     0
102
RTVSPropertyOp28
 70
     0
102
RTVSPropertyOp29
 70
     0
102
RTVSPropertyOp30
 70
     0
102
RTVSPropertyOp31
 70
     0
102
RTVSPropertyOp32
 70
     0
102
RTVSPropertyOp33
 70
     0
102
RTVSPropertyOp34
 70
     0
102
RTVSPropertyOp35
 70
     0
102
RTVSPropertyOp36
 70
     0
102
RTVSPropertyOp37
 70
     0
102
RTVSPropertyOp38
 70
     0
102
RTVSPropertyOp39
 70
     0
102
RTVSPropertyOp40
 70
     0
102
RTVSPropertyOp41
 70
     0
102
RTVSPropertyOp42
 70
     0
102
RTVSPropertyOp43
 70
     0
102
RTVSPropertyOp44
 70
     0
102
RTVSPropertyOp45
 70
     0
102
RTVSPropertyOp46
 70
     0
102
RTVSPropertyOp47
 70
     0
102
RTVSPropertyOp48
 70
     0
102
RTVSPropertyOp49
 70
     0
102
RTVSPropertyOp50
 70
     0
102
RTVSPropertyOp51
 70
     0
102
RTVSPropertyOp52
 70
     0
102
RTVSPropertyOp53
 70
     0
102
RTVSPropertyOp54
 70
     0
102
RTVSPropertyOp55
 70
     0
102
RTVSPropertyOp56
 70
     0
102
RTVSPropertyOp57
 70
     0
102
RTVSPost2010Prop28
280
     0
102
RTVSPost2010PropOp28
 70
     0
102
RTVSPost2010Prop29
280
     1
102
RTVSPost2010PropOp29
 70
     0
102
RTVSPost2010Prop30
280
     1
102
RTVSPost2010PropOp30
 70
     0
102
RTVSPost2010Prop31
280
     0
102
RTVSPost2010PropOp31
 70
     0
102
RTVSPost2010Prop32
280
     0
102
RTVSPost2010PropOp32
 70
     0
102
RTVSPost2010Prop33
280
     0
102
RTVSPost2010PropOp33
 70
     0
102
RTVSPost2010Prop34
280
     0
102
RTVSPost2010PropOp34
 70
     0
102
RTVSPost2010Prop35
280
     0
102
RTVSPost2010PropOp35
 70
     0
102
RTVSPost2010Prop36
280
     0
102
RTVSPost2010PropOp36
 70
     0
102
RTVSPost2010Prop37
 90
       50
102
RTVSPost2010PropOp37
 70
     0
102
RTVSPost2010Prop38
140
0.0
102
RTVSPost2010PropOp38
 70
     0
102
RTVSPost2010Prop39
140
1.0
102
RTVSPost2010PropOp39
 70
     0
102
RTVSPost2010Prop40
 90
        0
102
RTVSPost2010PropOp40
 70
     0
102
RTVSPost2010Prop41ColorIndex
 90
       18
102
RTVSPost2010Prop41ColorRGB
 90
        0
102
RTVSPost2010PropOp41
 70
     0
102
RTVSPost2010Prop42
 90
       50
102
RTVSPost2010PropOp42
 70
     0
102
RTVSPost2010Prop43
 90
        3
102
RTVSPost2010PropOp43
 70
     0
102
RTVSPost2010Prop44ColorIndex
 90
        5
102
RTVSPost2010Prop44ColorRGB
 90
      255
102
RTVSPost2010PropOp44
 70
     0
102
RTVSPost2010Prop45
280
     0
102
RTVSPost2010PropOp45
 70
     0
102
RTVSPost2010Prop46
 90
       50
102
RTVSPost2010PropOp46
 70
     0
102
RTVSPost2010Prop47
 90
       50
102
RTVSPost2010PropOp47
 70
     0
102
RTVSPost2010Prop48
 90
       50
102
RTVSPost2010PropOp48
 70
     0
102
RTVSPost2010Prop49
280
     0
102
RTVSPost2010PropOp49
 70
     0
102
RTVSPost2010Prop50
 90
       50
102
RTVSPost2010PropOp50
 70
     0
102
RTVSPost2010Prop51ColorIndex
 90
      256
102
RTVSPost2010Prop51ColorRGB
 90
-16777216
102
RTVSPost2010PropOp51
 70
     0
102
RTVSPost2010Prop52
140
1.0
102
RTVSPost2010PropOp52
 70
     0
102
RTVSPost2010Prop53
 90
        2
102
RTVSPost2010PropOp53
 70
     0
102
RTVSPost2010Prop54
  1
strokes_ogs.tif
102
RTVSPost2010PropOp54
 70
     0
102
RTVSPost2010Prop55
280
     0
102
RTVSPost2010PropOp55
 70
     0
102
RTVSPost2010Prop56
140
1.0
102
RTVSPost2010PropOp56
 70
     0
102
RTVSPost2010Prop57
140
1.0
102
RTVSPost2010PropOp57
 70
     0
  0
XRECORD
  5
216
102
{ACAD_REACTORS
330
215
102
}
330
215
100
AcDbXrecord
280
     1
102
RTVSPropertyOp0
 70
     1
102
RTVSPropertyOp1
 70
     1
102
RTVSPropertyOp2
 70
     1
102
RTVSPropertyOp3
 70
     1
102
RTVSPropertyOp4
 70
     1
102
RTVSPropertyOp5
 70
     1
102
RTVSPropertyOp6
 70
     1
102
RTVSPropertyOp7
 70
     1
102
RTVSPropertyOp8
 70
     1
102
RTVSPropertyOp9
 70
     1
102
RTVSPropertyOp10
 70
     1
102
RTVSPropertyOp11
 70
     1
102
RTVSPropertyOp12
 70
     1
102
RTVSPropertyOp13
 70
     1
102
RTVSPropertyOp14
 70
     1
102
RTVSPropertyOp15
 70
     1
102
RTVSPropertyOp16
 70
     1
102
RTVSPropertyOp17
 70
     1
102
RTVSPropertyOp18
 70
     1
102
RTVSPropertyOp19
 70
     1
102
RTVSPropertyOp20
 70
     1
102
RTVSPropertyOp21
 70
     1
102
RTVSPropertyOp22
 70
     1
102
RTVSPropertyOp23
 70
     1
102
RTVSPropertyOp24
 70
     1
102
RTVSPropertyOp25
 70
     1
102
RTVSPropertyOp26
 70
     1
102
RTVSPropertyOp27
 70
     1
102
RTVSPropertyOp28
 70
     1
102
RTVSPropertyOp29
 70
     1
102
RTVSPropertyOp30
 70
     1
102
RTVSPropertyOp31
 70
     1
102
RTVSPropertyOp32
 70
     1
102
RTVSPropertyOp33
 70
     1
102
RTVSPropertyOp34
 70
     1
102
RTVSPropertyOp35
 70
     1
102
RTVSPropertyOp36
 70
     1
102
RTVSPropertyOp37
 70
     1
102
RTVSPropertyOp38
 70
     1
102
RTVSPropertyOp39
 70
     1
102
RTVSPropertyOp40
 70
     1
102
RTVSPropertyOp41
 70
     1
102
RTVSPropertyOp42
 70
     1
102
RTVSPropertyOp43
 70
     1
102
RTVSPropertyOp44
 70
     1
102
RTVSPropertyOp45
 70
     1
102
RTVSPropertyOp46
 70
     1
102
RTVSPropertyOp47
 70
     1
102
RTVSPropertyOp48
 70
     1
102
RTVSPropertyOp49
 70
     1
102
RTVSPropertyOp50
 70
     1
102
RTVSPropertyOp51
 70
     0
102
RTVSPropertyOp52
 70
     0
102
RTVSPropertyOp53
 70
     1
102
RTVSPropertyOp54
 70
     1
102
RTVSPropertyOp55
 70
     1
102
RTVSPropertyOp56
 70
     1
102
RTVSPropertyOp57
 70
     1
102
RTVSPost2010Prop28
280
     0
102
RTVSPost2010PropOp28
 70
     1
102
RTVSPost2010Prop29
280
     1
102
RTVSPost2010PropOp29
 70
     1
102
RTVSPost2010Prop30
280
     1
102
RTVSPost2010PropOp30
 70
     1
102
RTVSPost2010Prop31
280
     0
102
RTVSPost2010PropOp31
 70
     1
102
RTVSPost2010Prop32
280
     0
102
RTVSPost2010PropOp32
 70
     1
102
RTVSPost2010Prop33
280
     0
102
RTVSPost2010PropOp33
 70
     1
102
RTVSPost2010Prop34
280
     0
102
RTVSPost2010PropOp34
 70
     1
102
RTVSPost2010Prop35
280
     0
102
RTVSPost2010PropOp35
 70
     1
102
RTVSPost2010Prop36
280
     0
102
RTVSPost2010PropOp36
 70
     1
102
RTVSPost2010Prop37
 90
       50
102
RTVSPost2010PropOp37
 70
     1
102
RTVSPost2010Prop38
140
0.0
102
RTVSPost2010PropOp38
 70
     1
102
RTVSPost2010Prop39
140
1.0
102
RTVSPost2010PropOp39
 70
     1
102
RTVSPost2010Prop40
 90
        0
102
RTVSPost2010PropOp40
 70
     1
102
RTVSPost2010Prop41ColorIndex
 90
       18
102
RTVSPost2010Prop41ColorRGB
 90
        0
102
RTVSPost2010PropOp41
 70
     1
102
RTVSPost2010Prop42
 90
       50
102
RTVSPost2010PropOp42
 70
     1
102
RTVSPost2010Prop43
 90
        3
102
RTVSPost2010PropOp43
 70
     1
102
RTVSPost2010Prop44ColorIndex
 90
        5
102
RTVSPost2010Prop44ColorRGB
 90
      255
102
RTVSPost2010PropOp44
 70
     1
102
RTVSPost2010Prop45
280
     0
102
RTVSPost2010PropOp45
 70
     1
102
RTVSPost2010Prop46
 90
       50
102
RTVSPost2010PropOp46
 70
     1
102
RTVSPost2010Prop47
 90
       50
102
RTVSPost2010PropOp47
 70
     1
102
RTVSPost2010Prop48
 90
       50
102
RTVSPost2010PropOp48
 70
     1
102
RTVSPost2010Prop49
280
     0
102
RTVSPost2010PropOp49
 70
     1
102
RTVSPost2010Prop50
 90
       50
102
RTVSPost2010PropOp50
 70
     1
102
RTVSPost2010Prop51ColorIndex
 90
      256
102
RTVSPost2010Prop51ColorRGB
 90
-16777216
102
RTVSPost2010PropOp51
 70
     0
102
RTVSPost2010Prop52
140
1.0
102
RTVSPost2010PropOp52
 70
     0
102
RTVSPost2010Prop53
 90
        2
102
RTVSPost2010PropOp53
 70
     1
102
RTVSPost2010Prop54
  1
strokes_ogs.tif
102
RTVSPost2010PropOp54
 70
     1
102
RTVSPost2010Prop55
280
     0
102
RTVSPost2010PropOp55
 70
     1
102
RTVSPost2010Prop56
140
1.0
102
RTVSPost2010PropOp56
 70
     1
102
RTVSPost2010Prop57
140
1.0
102
RTVSPost2010PropOp57
 70
     1
  0
XRECORD
  5
21E
102
{ACAD_REACTORS
330
21D
102
}
330
21D
100
AcDbXrecord
280
     1
102
RTVSPropertyOp0
 70
     0
102
RTVSPropertyOp1
 70
     0
102
RTVSPropertyOp2
 70
     0
102
RTVSPropertyOp3
 70
     0
102
RTVSPropertyOp4
 70
     0
102
RTVSPropertyOp5
 70
     0
102
RTVSPropertyOp6
 70
     0
102
RTVSPropertyOp7
 70
     0
102
RTVSPropertyOp8
 70
     0
102
RTVSPropertyOp9
 70
     0
102
RTVSPropertyOp10
 70
     0
102
RTVSPropertyOp11
 70
     0
102
RTVSPropertyOp12
 70
     0
102
RTVSPropertyOp13
 70
     0
102
RTVSPropertyOp14
 70
     2
102
RTVSPropertyOp15
 70
     0
102
RTVSPropertyOp16
 70
     0
102
RTVSPropertyOp17
 70
     0
102
RTVSPropertyOp18
 70
     0
102
RTVSPropertyOp19
 70
     0
102
RTVSPropertyOp20
 70
     0
102
RTVSPropertyOp21
 70
     0
102
RTVSPropertyOp22
 70
     0
102
RTVSPropertyOp23
 70
     0
102
RTVSPropertyOp24
 70
     0
102
RTVSPropertyOp25
 70
     0
102
RTVSPropertyOp26
 70
     0
102
RTVSPropertyOp27
 70
     0
102
RTVSPropertyOp28
 70
     0
102
RTVSPropertyOp29
 70
     0
102
RTVSPropertyOp30
 70
     0
102
RTVSPropertyOp31
 70
     0
102
RTVSPropertyOp32
 70
     0
102
RTVSPropertyOp33
 70
     0
102
RTVSPropertyOp34
 70
     0
102
RTVSPropertyOp35
 70
     0
102
RTVSPropertyOp36
 70
     0
102
RTVSPropertyOp37
 70
     0
102
RTVSPropertyOp38
 70
     0
102
RTVSPropertyOp39
 70
     0
102
RTVSPropertyOp40
 70
     0
102
RTVSPropertyOp41
 70
     0
102
RTVSPropertyOp42
 70
     0
102
RTVSPropertyOp43
 70
     0
102
RTVSPropertyOp44
 70
     0
102
RTVSPropertyOp45
 70
     0
102
RTVSPropertyOp46
 70
     0
102
RTVSPropertyOp47
 70
     0
102
RTVSPropertyOp48
 70
     0
102
RTVSPropertyOp49
 70
     0
102
RTVSPropertyOp50
 70
     0
102
RTVSPropertyOp51
 70
     0
102
RTVSPropertyOp52
 70
     0
102
RTVSPropertyOp53
 70
     0
102
RTVSPropertyOp54
 70
     0
102
RTVSPropertyOp55
 70
     0
102
RTVSPropertyOp56
 70
     0
102
RTVSPropertyOp57
 70
     0
102
RTVSPost2010Prop28
280
     0
102
RTVSPost2010PropOp28
 70
     0
102
RTVSPost2010Prop29
280
     1
102
RTVSPost2010PropOp29
 70
     0
102
RTVSPost2010Prop30
280
     1
102
RTVSPost2010PropOp30
 70
     0
102
RTVSPost2010Prop31
280
     0
102
RTVSPost2010PropOp31
 70
     0
102
RTVSPost2010Prop32
280
     0
102
RTVSPost2010PropOp32
 70
     0
102
RTVSPost2010Prop33
280
     0
102
RTVSPost2010PropOp33
 70
     0
102
RTVSPost2010Prop34
280
     0
102
RTVSPost2010PropOp34
 70
     0
102
RTVSPost2010Prop35
280
     0
102
RTVSPost2010PropOp35
 70
     0
102
RTVSPost2010Prop36
280
     0
102
RTVSPost2010PropOp36
 70
     0
102
RTVSPost2010Prop37
 90
       50
102
RTVSPost2010PropOp37
 70
     0
102
RTVSPost2010Prop38
140
0.0
102
RTVSPost2010PropOp38
 70
     0
102
RTVSPost2010Prop39
140
1.0
102
RTVSPost2010PropOp39
 70
     0
102
RTVSPost2010Prop40
 90
        0
102
RTVSPost2010PropOp40
 70
     0
102
RTVSPost2010Prop41ColorIndex
 90
       18
102
RTVSPost2010Prop41ColorRGB
 90
        0
102
RTVSPost2010PropOp41
 70
     0
102
RTVSPost2010Prop42
 90
       50
102
RTVSPost2010PropOp42
 70
     0
102
RTVSPost2010Prop43
 90
        3
102
RTVSPost2010PropOp43
 70
     0
102
RTVSPost2010Prop44ColorIndex
 90
        5
102
RTVSPost2010Prop44ColorRGB
 90
      255
102
RTVSPost2010PropOp44
 70
     0
102
RTVSPost2010Prop45
280
     0
102
RTVSPost2010PropOp45
 70
     0
102
RTVSPost2010Prop46
 90
       50
102
RTVSPost2010PropOp46
 70
     0
102
RTVSPost2010Prop47
 90
       50
102
RTVSPost2010PropOp47
 70
     0
102
RTVSPost2010Prop48
 90
       50
102
RTVSPost2010PropOp48
 70
     0
102
RTVSPost2010Prop49
280
     0
102
RTVSPost2010PropOp49
 70
     0
102
RTVSPost2010Prop50
 90
       50
102
RTVSPost2010PropOp50
 70
     0
102
RTVSPost2010Prop51ColorIndex
 90
      256
102
RTVSPost2010Prop51ColorRGB
 90
-16777216
102
RTVSPost2010PropOp51
 70
     0
102
RTVSPost2010Prop52
140
1.0
102
RTVSPost2010PropOp52
 70
     0
102
RTVSPost2010Prop53
 90
        2
102
RTVSPost2010PropOp53
 70
     0
102
RTVSPost2010Prop54
  1
strokes_ogs.tif
102
RTVSPost2010PropOp54
 70
     0
102
RTVSPost2010Prop55
280
     0
102
RTVSPost2010PropOp55
 70
     0
102
RTVSPost2010Prop56
140
1.0
102
RTVSPost2010PropOp56
 70
     0
102
RTVSPost2010Prop57
140
1.0
102
RTVSPost2010PropOp57
 70
     0
  0
XRECORD
  5
20C
102
{ACAD_REACTORS
330
20B
102
}
330
20B
100
AcDbXrecord
280
     1
102
RTVSPropertyOp0
 70
     1
102
RTVSPropertyOp1
 70
     1
102
RTVSPropertyOp2
 70
     1
102
RTVSPropertyOp3
 70
     1
102
RTVSPropertyOp4
 70
     1
102
RTVSPropertyOp5
 70
     1
102
RTVSPropertyOp6
 70
     1
102
RTVSPropertyOp7
 70
     1
102
RTVSPropertyOp8
 70
     1
102
RTVSPropertyOp9
 70
     1
102
RTVSPropertyOp10
 70
     1
102
RTVSPropertyOp11
 70
     1
102
RTVSPropertyOp12
 70
     1
102
RTVSPropertyOp13
 70
     1
102
RTVSPropertyOp14
 70
     1
102
RTVSPropertyOp15
 70
     1
102
RTVSPropertyOp16
 70
     1
102
RTVSPropertyOp17
 70
     1
102
RTVSPropertyOp18
 70
     1
102
RTVSPropertyOp19
 70
     1
102
RTVSPropertyOp20
 70
     1
102
RTVSPropertyOp21
 70
     1
102
RTVSPropertyOp22
 70
     1
102
RTVSPropertyOp23
 70
     1
102
RTVSPropertyOp24
 70
     1
102
RTVSPropertyOp25
 70
     1
102
RTVSPropertyOp26
 70
     1
102
RTVSPropertyOp27
 70
     1
102
RTVSPropertyOp28
 70
     1
102
RTVSPropertyOp29
 70
     1
102
RTVSPropertyOp30
 70
     1
102
RTVSPropertyOp31
 70
     1
102
RTVSPropertyOp32
 70
     1
102
RTVSPropertyOp33
 70
     1
102
RTVSPropertyOp34
 70
     1
102
RTVSPropertyOp35
 70
     1
102
RTVSPropertyOp36
 70
     1
102
RTVSPropertyOp37
 70
     1
102
RTVSPropertyOp38
 70
     1
102
RTVSPropertyOp39
 70
     1
102
RTVSPropertyOp40
 70
     1
102
RTVSPropertyOp41
 70
     1
102
RTVSPropertyOp42
 70
     1
102
RTVSPropertyOp43
 70
     1
102
RTVSPropertyOp44
 70
     1
102
RTVSPropertyOp45
 70
     1
102
RTVSPropertyOp46
 70
     1
102
RTVSPropertyOp47
 70
     1
102
RTVSPropertyOp48
 70
     1
102
RTVSPropertyOp49
 70
     1
102
RTVSPropertyOp50
 70
     1
102
RTVSPropertyOp51
 70
     0
102
RTVSPropertyOp52
 70
     0
102
RTVSPropertyOp53
 70
     1
102
RTVSPropertyOp54
 70
     1
102
RTVSPropertyOp55
 70
     1
102
RTVSPropertyOp56
 70
     1
102
RTVSPropertyOp57
 70
     1
102
RTVSPost2010Prop28
280
     0
102
RTVSPost2010PropOp28
 70
     1
102
RTVSPost2010Prop29
280
     1
102
RTVSPost2010PropOp29
 70
     1
102
RTVSPost2010Prop30
280
     1
102
RTVSPost2010PropOp30
 70
     1
102
RTVSPost2010Prop31
280
     0
102
RTVSPost2010PropOp31
 70
     1
102
RTVSPost2010Prop32
280
     0
102
RTVSPost2010PropOp32
 70
     1
102
RTVSPost2010Prop33
280
     0
102
RTVSPost2010PropOp33
 70
     1
102
RTVSPost2010Prop34
280
     0
102
RTVSPost2010PropOp34
 70
     1
102
RTVSPost2010Prop35
280
     0
102
RTVSPost2010PropOp35
 70
     1
102
RTVSPost2010Prop36
280
     0
102
RTVSPost2010PropOp36
 70
     1
102
RTVSPost2010Prop37
 90
       50
102
RTVSPost2010PropOp37
 70
     1
102
RTVSPost2010Prop38
140
0.0
102
RTVSPost2010PropOp38
 70
     1
102
RTVSPost2010Prop39
140
1.0
102
RTVSPost2010PropOp39
 70
     1
102
RTVSPost2010Prop40
 90
        0
102
RTVSPost2010PropOp40
 70
     1
102
RTVSPost2010Prop41ColorIndex
 90
       18
102
RTVSPost2010Prop41ColorRGB
 90
        0
102
RTVSPost2010PropOp41
 70
     1
102
RTVSPost2010Prop42
 90
       50
102
RTVSPost2010PropOp42
 70
     1
102
RTVSPost2010Prop43
 90
        3
102
RTVSPost2010PropOp43
 70
     1
102
RTVSPost2010Prop44ColorIndex
 90
        5
102
RTVSPost2010Prop44ColorRGB
 90
      255
102
RTVSPost2010PropOp44
 70
     1
102
RTVSPost2010Prop45
280
     0
102
RTVSPost2010PropOp45
 70
     1
102
RTVSPost2010Prop46
 90
       50
102
RTVSPost2010PropOp46
 70
     1
102
RTVSPost2010Prop47
 90
       50
102
RTVSPost2010PropOp47
 70
     1
102
RTVSPost2010Prop48
 90
       50
102
RTVSPost2010PropOp48
 70
     1
102
RTVSPost2010Prop49
280
     0
102
RTVSPost2010PropOp49
 70
     1
102
RTVSPost2010Prop50
 90
       50
102
RTVSPost2010PropOp50
 70
     1
102
RTVSPost2010Prop51ColorIndex
 90
      256
102
RTVSPost2010Prop51ColorRGB
 90
-16777216
102
RTVSPost2010PropOp51
 70
     0
102
RTVSPost2010Prop52
140
1.0
102
RTVSPost2010PropOp52
 70
     0
102
RTVSPost2010Prop53
 90
        2
102
RTVSPost2010PropOp53
 70
     1
102
RTVSPost2010Prop54
  1
strokes_ogs.tif
102
RTVSPost2010PropOp54
 70
     1
102
RTVSPost2010Prop55
280
     0
102
RTVSPost2010PropOp55
 70
     1
102
RTVSPost2010Prop56
140
1.0
102
RTVSPost2010PropOp56
 70
     1
102
RTVSPost2010Prop57
140
1.0
102
RTVSPost2010PropOp57
 70
     1
  0
XRECORD
  5
22A
102
{ACAD_REACTORS
330
229
102
}
330
229
100
AcDbXrecord
280
     1
102
RTVSPropertyOp0
 70
     1
102
RTVSPropertyOp1
 70
     1
102
RTVSPropertyOp2
 70
     1
102
RTVSPropertyOp3
 70
     1
102
RTVSPropertyOp4
 70
     1
102
RTVSPropertyOp5
 70
     1
102
RTVSPropertyOp6
 70
     1
102
RTVSPropertyOp7
 70
     1
102
RTVSPropertyOp8
 70
     1
102
RTVSPropertyOp9
 70
     1
102
RTVSPropertyOp10
 70
     1
102
RTVSPropertyOp11
 70
     1
102
RTVSPropertyOp12
 70
     1
102
RTVSPropertyOp13
 70
     1
102
RTVSPropertyOp14
 70
     1
102
RTVSPropertyOp15
 70
     1
102
RTVSPropertyOp16
 70
     1
102
RTVSPropertyOp17
 70
     1
102
RTVSPropertyOp18
 70
     1
102
RTVSPropertyOp19
 70
     1
102
RTVSPropertyOp20
 70
     1
102
RTVSPropertyOp21
 70
     1
102
RTVSPropertyOp22
 70
     1
102
RTVSPropertyOp23
 70
     1
102
RTVSPropertyOp24
 70
     1
102
RTVSPropertyOp25
 70
     1
102
RTVSPropertyOp26
 70
     1
102
RTVSPropertyOp27
 70
     1
102
RTVSPropertyOp28
 70
     1
102
RTVSPropertyOp29
 70
     1
102
RTVSPropertyOp30
 70
     1
102
RTVSPropertyOp31
 70
     1
102
RTVSPropertyOp32
 70
     1
102
RTVSPropertyOp33
 70
     1
102
RTVSPropertyOp34
 70
     1
102
RTVSPropertyOp35
 70
     1
102
RTVSPropertyOp36
 70
     1
102
RTVSPropertyOp37
 70
     1
102
RTVSPropertyOp38
 70
     1
102
RTVSPropertyOp39
 70
     1
102
RTVSPropertyOp40
 70
     1
102
RTVSPropertyOp41
 70
     1
102
RTVSPropertyOp42
 70
     1
102
RTVSPropertyOp43
 70
     1
102
RTVSPropertyOp44
 70
     1
102
RTVSPropertyOp45
 70
     1
102
RTVSPropertyOp46
 70
     1
102
RTVSPropertyOp47
 70
     1
102
RTVSPropertyOp48
 70
     1
102
RTVSPropertyOp49
 70
     1
102
RTVSPropertyOp50
 70
     1
102
RTVSPropertyOp51
 70
     0
102
RTVSPropertyOp52
 70
     0
102
RTVSPropertyOp53
 70
     1
102
RTVSPropertyOp54
 70
     1
102
RTVSPropertyOp55
 70
     1
102
RTVSPropertyOp56
 70
     1
102
RTVSPropertyOp57
 70
     1
102
RTVSPost2010Prop28
280
     0
102
RTVSPost2010PropOp28
 70
     1
102
RTVSPost2010Prop29
280
     1
102
RTVSPost2010PropOp29
 70
     1
102
RTVSPost2010Prop30
280
     1
102
RTVSPost2010PropOp30
 70
     1
102
RTVSPost2010Prop31
280
     0
102
RTVSPost2010PropOp31
 70
     1
102
RTVSPost2010Prop32
280
     0
102
RTVSPost2010PropOp32
 70
     1
102
RTVSPost2010Prop33
280
     0
102
RTVSPost2010PropOp33
 70
     1
102
RTVSPost2010Prop34
280
     0
102
RTVSPost2010PropOp34
 70
     1
102
RTVSPost2010Prop35
280
     0
102
RTVSPost2010PropOp35
 70
     1
102
RTVSPost2010Prop36
280
     0
102
RTVSPost2010PropOp36
 70
     1
102
RTVSPost2010Prop37
 90
       50
102
RTVSPost2010PropOp37
 70
     1
102
RTVSPost2010Prop38
140
0.0
102
RTVSPost2010PropOp38
 70
     1
102
RTVSPost2010Prop39
140
1.0
102
RTVSPost2010PropOp39
 70
     1
102
RTVSPost2010Prop40
 90
        0
102
RTVSPost2010PropOp40
 70
     1
102
RTVSPost2010Prop41ColorIndex
 90
       18
102
RTVSPost2010Prop41ColorRGB
 90
        0
102
RTVSPost2010PropOp41
 70
     1
102
RTVSPost2010Prop42
 90
       50
102
RTVSPost2010PropOp42
 70
     1
102
RTVSPost2010Prop43
 90
        3
102
RTVSPost2010PropOp43
 70
     1
102
RTVSPost2010Prop44ColorIndex
 90
        5
102
RTVSPost2010Prop44ColorRGB
 90
      255
102
RTVSPost2010PropOp44
 70
     1
102
RTVSPost2010Prop45
280
     0
102
RTVSPost2010PropOp45
 70
     1
102
RTVSPost2010Prop46
 90
       50
102
RTVSPost2010PropOp46
 70
     1
102
RTVSPost2010Prop47
 90
       50
102
RTVSPost2010PropOp47
 70
     1
102
RTVSPost2010Prop48
 90
       50
102
RTVSPost2010PropOp48
 70
     1
102
RTVSPost2010Prop49
280
     0
102
RTVSPost2010PropOp49
 70
     1
102
RTVSPost2010Prop50
 90
       50
102
RTVSPost2010PropOp50
 70
     1
102
RTVSPost2010Prop51ColorIndex
 90
      256
102
RTVSPost2010Prop51ColorRGB
 90
-16777216
102
RTVSPost2010PropOp51
 70
     0
102
RTVSPost2010Prop52
140
1.0
102
RTVSPost2010PropOp52
 70
     0
102
RTVSPost2010Prop53
 90
        2
102
RTVSPost2010PropOp53
 70
     1
102
RTVSPost2010Prop54
  1
strokes_ogs.tif
102
RTVSPost2010PropOp54
 70
     1
102
RTVSPost2010Prop55
280
     0
102
RTVSPost2010PropOp55
 70
     1
102
RTVSPost2010Prop56
140
1.0
102
RTVSPost2010PropOp56
 70
     1
102
RTVSPost2010Prop57
140
1.0
102
RTVSPost2010PropOp57
 70
     1
  0
XRECORD
  5
228
102
{ACAD_REACTORS
330
227
102
}
330
227
100
AcDbXrecord
280
     1
102
RTVSPropertyOp0
 70
     1
102
RTVSPropertyOp1
 70
     1
102
RTVSPropertyOp2
 70
     1
102
RTVSPropertyOp3
 70
     1
102
RTVSPropertyOp4
 70
     1
102
RTVSPropertyOp5
 70
     1
102
RTVSPropertyOp6
 70
     1
102
RTVSPropertyOp7
 70
     1
102
RTVSPropertyOp8
 70
     1
102
RTVSPropertyOp9
 70
     1
102
RTVSPropertyOp10
 70
     1
102
RTVSPropertyOp11
 70
     1
102
RTVSPropertyOp12
 70
     1
102
RTVSPropertyOp13
 70
     1
102
RTVSPropertyOp14
 70
     1
102
RTVSPropertyOp15
 70
     1
102
RTVSPropertyOp16
 70
     1
102
RTVSPropertyOp17
 70
     1
102
RTVSPropertyOp18
 70
     1
102
RTVSPropertyOp19
 70
     1
102
RTVSPropertyOp20
 70
     1
102
RTVSPropertyOp21
 70
     1
102
RTVSPropertyOp22
 70
     1
102
RTVSPropertyOp23
 70
     1
102
RTVSPropertyOp24
 70
     1
102
RTVSPropertyOp25
 70
     1
102
RTVSPropertyOp26
 70
     1
102
RTVSPropertyOp27
 70
     1
102
RTVSPropertyOp28
 70
     1
102
RTVSPropertyOp29
 70
     1
102
RTVSPropertyOp30
 70
     1
102
RTVSPropertyOp31
 70
     1
102
RTVSPropertyOp32
 70
     1
102
RTVSPropertyOp33
 70
     1
102
RTVSPropertyOp34
 70
     1
102
RTVSPropertyOp35
 70
     1
102
RTVSPropertyOp36
 70
     1
102
RTVSPropertyOp37
 70
     1
102
RTVSPropertyOp38
 70
     1
102
RTVSPropertyOp39
 70
     1
102
RTVSPropertyOp40
 70
     1
102
RTVSPropertyOp41
 70
     1
102
RTVSPropertyOp42
 70
     1
102
RTVSPropertyOp43
 70
     1
102
RTVSPropertyOp44
 70
     1
102
RTVSPropertyOp45
 70
     1
102
RTVSPropertyOp46
 70
     1
102
RTVSPropertyOp47
 70
     1
102
RTVSPropertyOp48
 70
     1
102
RTVSPropertyOp49
 70
     1
102
RTVSPropertyOp50
 70
     1
102
RTVSPropertyOp51
 70
     0
102
RTVSPropertyOp52
 70
     0
102
RTVSPropertyOp53
 70
     1
102
RTVSPropertyOp54
 70
     1
102
RTVSPropertyOp55
 70
     1
102
RTVSPropertyOp56
 70
     1
102
RTVSPropertyOp57
 70
     1
102
RTVSPost2010Prop28
280
     0
102
RTVSPost2010PropOp28
 70
     1
102
RTVSPost2010Prop29
280
     1
102
RTVSPost2010PropOp29
 70
     1
102
RTVSPost2010Prop30
280
     1
102
RTVSPost2010PropOp30
 70
     1
102
RTVSPost2010Prop31
280
     0
102
RTVSPost2010PropOp31
 70
     1
102
RTVSPost2010Prop32
280
     0
102
RTVSPost2010PropOp32
 70
     1
102
RTVSPost2010Prop33
280
     0
102
RTVSPost2010PropOp33
 70
     1
102
RTVSPost2010Prop34
280
     0
102
RTVSPost2010PropOp34
 70
     1
102
RTVSPost2010Prop35
280
     0
102
RTVSPost2010PropOp35
 70
     1
102
RTVSPost2010Prop36
280
     0
102
RTVSPost2010PropOp36
 70
     1
102
RTVSPost2010Prop37
 90
       50
102
RTVSPost2010PropOp37
 70
     1
102
RTVSPost2010Prop38
140
0.0
102
RTVSPost2010PropOp38
 70
     1
102
RTVSPost2010Prop39
140
1.0
102
RTVSPost2010PropOp39
 70
     1
102
RTVSPost2010Prop40
 90
        0
102
RTVSPost2010PropOp40
 70
     1
102
RTVSPost2010Prop41ColorIndex
 90
       18
102
RTVSPost2010Prop41ColorRGB
 90
        0
102
RTVSPost2010PropOp41
 70
     1
102
RTVSPost2010Prop42
 90
       50
102
RTVSPost2010PropOp42
 70
     1
102
RTVSPost2010Prop43
 90
        3
102
RTVSPost2010PropOp43
 70
     1
102
RTVSPost2010Prop44ColorIndex
 90
        5
102
RTVSPost2010Prop44ColorRGB
 90
      255
102
RTVSPost2010PropOp44
 70
     1
102
RTVSPost2010Prop45
280
     0
102
RTVSPost2010PropOp45
 70
     1
102
RTVSPost2010Prop46
 90
       50
102
RTVSPost2010PropOp46
 70
     1
102
RTVSPost2010Prop47
 90
       50
102
RTVSPost2010PropOp47
 70
     1
102
RTVSPost2010Prop48
 90
       50
102
RTVSPost2010PropOp48
 70
     1
102
RTVSPost2010Prop49
280
     0
102
RTVSPost2010PropOp49
 70
     1
102
RTVSPost2010Prop50
 90
       50
102
RTVSPost2010PropOp50
 70
     1
102
RTVSPost2010Prop51ColorIndex
 90
      256
102
RTVSPost2010Prop51ColorRGB
 90
-16777216
102
RTVSPost2010PropOp51
 70
     0
102
RTVSPost2010Prop52
140
1.0
102
RTVSPost2010PropOp52
 70
     0
102
RTVSPost2010Prop53
 90
        2
102
RTVSPost2010PropOp53
 70
     1
102
RTVSPost2010Prop54
  1
strokes_ogs.tif
102
RTVSPost2010PropOp54
 70
     1
102
RTVSPost2010Prop55
280
     0
102
RTVSPost2010PropOp55
 70
     1
102
RTVSPost2010Prop56
140
1.0
102
RTVSPost2010PropOp56
 70
     1
102
RTVSPost2010Prop57
140
1.0
102
RTVSPost2010PropOp57
 70
     1
  0
XRECORD
  5
222
102
{ACAD_REACTORS
330
221
102
}
330
221
100
AcDbXrecord
280
     1
102
RTVSPropertyOp0
 70
     1
102
RTVSPropertyOp1
 70
     1
102
RTVSPropertyOp2
 70
     1
102
RTVSPropertyOp3
 70
     1
102
RTVSPropertyOp4
 70
     1
102
RTVSPropertyOp5
 70
     1
102
RTVSPropertyOp6
 70
     1
102
RTVSPropertyOp7
 70
     1
102
RTVSPropertyOp8
 70
     1
102
RTVSPropertyOp9
 70
     1
102
RTVSPropertyOp10
 70
     1
102
RTVSPropertyOp11
 70
     1
102
RTVSPropertyOp12
 70
     1
102
RTVSPropertyOp13
 70
     1
102
RTVSPropertyOp14
 70
     1
102
RTVSPropertyOp15
 70
     1
102
RTVSPropertyOp16
 70
     1
102
RTVSPropertyOp17
 70
     1
102
RTVSPropertyOp18
 70
     1
102
RTVSPropertyOp19
 70
     1
102
RTVSPropertyOp20
 70
     1
102
RTVSPropertyOp21
 70
     1
102
RTVSPropertyOp22
 70
     1
102
RTVSPropertyOp23
 70
     1
102
RTVSPropertyOp24
 70
     1
102
RTVSPropertyOp25
 70
     1
102
RTVSPropertyOp26
 70
     1
102
RTVSPropertyOp27
 70
     1
102
RTVSPropertyOp28
 70
     1
102
RTVSPropertyOp29
 70
     1
102
RTVSPropertyOp30
 70
     1
102
RTVSPropertyOp31
 70
     1
102
RTVSPropertyOp32
 70
     1
102
RTVSPropertyOp33
 70
     1
102
RTVSPropertyOp34
 70
     1
102
RTVSPropertyOp35
 70
     1
102
RTVSPropertyOp36
 70
     1
102
RTVSPropertyOp37
 70
     1
102
RTVSPropertyOp38
 70
     1
102
RTVSPropertyOp39
 70
     1
102
RTVSPropertyOp40
 70
     1
102
RTVSPropertyOp41
 70
     1
102
RTVSPropertyOp42
 70
     1
102
RTVSPropertyOp43
 70
     1
102
RTVSPropertyOp44
 70
     1
102
RTVSPropertyOp45
 70
     1
102
RTVSPropertyOp46
 70
     1
102
RTVSPropertyOp47
 70
     1
102
RTVSPropertyOp48
 70
     1
102
RTVSPropertyOp49
 70
     1
102
RTVSPropertyOp50
 70
     1
102
RTVSPropertyOp51
 70
     0
102
RTVSPropertyOp52
 70
     0
102
RTVSPropertyOp53
 70
     1
102
RTVSPropertyOp54
 70
     1
102
RTVSPropertyOp55
 70
     1
102
RTVSPropertyOp56
 70
     1
102
RTVSPropertyOp57
 70
     1
102
RTVSPost2010Prop28
280
     0
102
RTVSPost2010PropOp28
 70
     1
102
RTVSPost2010Prop29
280
     1
102
RTVSPost2010PropOp29
 70
     1
102
RTVSPost2010Prop30
280
     1
102
RTVSPost2010PropOp30
 70
     1
102
RTVSPost2010Prop31
280
     0
102
RTVSPost2010PropOp31
 70
     1
102
RTVSPost2010Prop32
280
     0
102
RTVSPost2010PropOp32
 70
     1
102
RTVSPost2010Prop33
280
     0
102
RTVSPost2010PropOp33
 70
     1
102
RTVSPost2010Prop34
280
     0
102
RTVSPost2010PropOp34
 70
     1
102
RTVSPost2010Prop35
280
     0
102
RTVSPost2010PropOp35
 70
     1
102
RTVSPost2010Prop36
280
     0
102
RTVSPost2010PropOp36
 70
     1
102
RTVSPost2010Prop37
 90
       50
102
RTVSPost2010PropOp37
 70
     1
102
RTVSPost2010Prop38
140
0.0
102
RTVSPost2010PropOp38
 70
     1
102
RTVSPost2010Prop39
140
1.0
102
RTVSPost2010PropOp39
 70
     1
102
RTVSPost2010Prop40
 90
        0
102
RTVSPost2010PropOp40
 70
     1
102
RTVSPost2010Prop41ColorIndex
 90
       18
102
RTVSPost2010Prop41ColorRGB
 90
        0
102
RTVSPost2010PropOp41
 70
     1
102
RTVSPost2010Prop42
 90
       50
102
RTVSPost2010PropOp42
 70
     1
102
RTVSPost2010Prop43
 90
        3
102
RTVSPost2010PropOp43
 70
     1
102
RTVSPost2010Prop44ColorIndex
 90
        5
102
RTVSPost2010Prop44ColorRGB
 90
      255
102
RTVSPost2010PropOp44
 70
     1
102
RTVSPost2010Prop45
280
     0
102
RTVSPost2010PropOp45
 70
     1
102
RTVSPost2010Prop46
 90
       50
102
RTVSPost2010PropOp46
 70
     1
102
RTVSPost2010Prop47
 90
       50
102
RTVSPost2010PropOp47
 70
     1
102
RTVSPost2010Prop48
 90
       50
102
RTVSPost2010PropOp48
 70
     1
102
RTVSPost2010Prop49
280
     0
102
RTVSPost2010PropOp49
 70
     1
102
RTVSPost2010Prop50
 90
       50
102
RTVSPost2010PropOp50
 70
     1
102
RTVSPost2010Prop51ColorIndex
 90
      256
102
RTVSPost2010Prop51ColorRGB
 90
-16777216
102
RTVSPost2010PropOp51
 70
     0
102
RTVSPost2010Prop52
140
1.0
102
RTVSPost2010PropOp52
 70
     0
102
RTVSPost2010Prop53
 90
        2
102
RTVSPost2010PropOp53
 70
     1
102
RTVSPost2010Prop54
  1
strokes_ogs.tif
102
RTVSPost2010PropOp54
 70
     1
102
RTVSPost2010Prop55
280
     0
102
RTVSPost2010PropOp55
 70
     1
102
RTVSPost2010Prop56
140
1.0
102
RTVSPost2010PropOp56
 70
     1
102
RTVSPost2010Prop57
140
1.0
102
RTVSPost2010PropOp57
 70
     1
  0
XRECORD
  5
224
102
{ACAD_REACTORS
330
223
102
}
330
223
100
AcDbXrecord
280
     1
102
RTVSPropertyOp0
 70
     1
102
RTVSPropertyOp1
 70
     1
102
RTVSPropertyOp2
 70
     1
102
RTVSPropertyOp3
 70
     1
102
RTVSPropertyOp4
 70
     1
102
RTVSPropertyOp5
 70
     1
102
RTVSPropertyOp6
 70
     1
102
RTVSPropertyOp7
 70
     1
102
RTVSPropertyOp8
 70
     1
102
RTVSPropertyOp9
 70
     1
102
RTVSPropertyOp10
 70
     1
102
RTVSPropertyOp11
 70
     1
102
RTVSPropertyOp12
 70
     1
102
RTVSPropertyOp13
 70
     1
102
RTVSPropertyOp14
 70
     1
102
RTVSPropertyOp15
 70
     1
102
RTVSPropertyOp16
 70
     1
102
RTVSPropertyOp17
 70
     1
102
RTVSPropertyOp18
 70
     1
102
RTVSPropertyOp19
 70
     1
102
RTVSPropertyOp20
 70
     1
102
RTVSPropertyOp21
 70
     1
102
RTVSPropertyOp22
 70
     1
102
RTVSPropertyOp23
 70
     1
102
RTVSPropertyOp24
 70
     1
102
RTVSPropertyOp25
 70
     1
102
RTVSPropertyOp26
 70
     1
102
RTVSPropertyOp27
 70
     1
102
RTVSPropertyOp28
 70
     1
102
RTVSPropertyOp29
 70
     1
102
RTVSPropertyOp30
 70
     1
102
RTVSPropertyOp31
 70
     1
102
RTVSPropertyOp32
 70
     1
102
RTVSPropertyOp33
 70
     1
102
RTVSPropertyOp34
 70
     1
102
RTVSPropertyOp35
 70
     1
102
RTVSPropertyOp36
 70
     1
102
RTVSPropertyOp37
 70
     1
102
RTVSPropertyOp38
 70
     1
102
RTVSPropertyOp39
 70
     1
102
RTVSPropertyOp40
 70
     1
102
RTVSPropertyOp41
 70
     1
102
RTVSPropertyOp42
 70
     1
102
RTVSPropertyOp43
 70
     1
102
RTVSPropertyOp44
 70
     1
102
RTVSPropertyOp45
 70
     1
102
RTVSPropertyOp46
 70
     1
102
RTVSPropertyOp47
 70
     1
102
RTVSPropertyOp48
 70
     1
102
RTVSPropertyOp49
 70
     1
102
RTVSPropertyOp50
 70
     1
102
RTVSPropertyOp51
 70
     0
102
RTVSPropertyOp52
 70
     0
102
RTVSPropertyOp53
 70
     1
102
RTVSPropertyOp54
 70
     1
102
RTVSPropertyOp55
 70
     1
102
RTVSPropertyOp56
 70
     1
102
RTVSPropertyOp57
 70
     1
102
RTVSPost2010Prop28
280
     0
102
RTVSPost2010PropOp28
 70
     1
102
RTVSPost2010Prop29
280
     1
102
RTVSPost2010PropOp29
 70
     1
102
RTVSPost2010Prop30
280
     1
102
RTVSPost2010PropOp30
 70
     1
102
RTVSPost2010Prop31
280
     0
102
RTVSPost2010PropOp31
 70
     1
102
RTVSPost2010Prop32
280
     0
102
RTVSPost2010PropOp32
 70
     1
102
RTVSPost2010Prop33
280
     0
102
RTVSPost2010PropOp33
 70
     1
102
RTVSPost2010Prop34
280
     0
102
RTVSPost2010PropOp34
 70
     1
102
RTVSPost2010Prop35
280
     0
102
RTVSPost2010PropOp35
 70
     1
102
RTVSPost2010Prop36
280
     0
102
RTVSPost2010PropOp36
 70
     1
102
RTVSPost2010Prop37
 90
       50
102
RTVSPost2010PropOp37
 70
     1
102
RTVSPost2010Prop38
140
0.0
102
RTVSPost2010PropOp38
 70
     1
102
RTVSPost2010Prop39
140
1.0
102
RTVSPost2010PropOp39
 70
     1
102
RTVSPost2010Prop40
 90
        0
102
RTVSPost2010PropOp40
 70
     1
102
RTVSPost2010Prop41ColorIndex
 90
       18
102
RTVSPost2010Prop41ColorRGB
 90
        0
102
RTVSPost2010PropOp41
 70
     1
102
RTVSPost2010Prop42
 90
       50
102
RTVSPost2010PropOp42
 70
     1
102
RTVSPost2010Prop43
 90
        3
102
RTVSPost2010PropOp43
 70
     1
102
RTVSPost2010Prop44ColorIndex
 90
        5
102
RTVSPost2010Prop44ColorRGB
 90
      255
102
RTVSPost2010PropOp44
 70
     1
102
RTVSPost2010Prop45
280
     0
102
RTVSPost2010PropOp45
 70
     1
102
RTVSPost2010Prop46
 90
       50
102
RTVSPost2010PropOp46
 70
     1
102
RTVSPost2010Prop47
 90
       50
102
RTVSPost2010PropOp47
 70
     1
102
RTVSPost2010Prop48
 90
       50
102
RTVSPost2010PropOp48
 70
     1
102
RTVSPost2010Prop49
280
     0
102
RTVSPost2010PropOp49
 70
     1
102
RTVSPost2010Prop50
 90
       50
102
RTVSPost2010PropOp50
 70
     1
102
RTVSPost2010Prop51ColorIndex
 90
      256
102
RTVSPost2010Prop51ColorRGB
 90
-16777216
102
RTVSPost2010PropOp51
 70
     0
102
RTVSPost2010Prop52
140
1.0
102
RTVSPost2010PropOp52
 70
     0
102
RTVSPost2010Prop53
 90
        2
102
RTVSPost2010PropOp53
 70
     1
102
RTVSPost2010Prop54
  1
strokes_ogs.tif
102
RTVSPost2010PropOp54
 70
     1
102
RTVSPost2010Prop55
280
     0
102
RTVSPost2010PropOp55
 70
     1
102
RTVSPost2010Prop56
140
1.0
102
RTVSPost2010PropOp56
 70
     1
102
RTVSPost2010Prop57
140
1.0
102
RTVSPost2010PropOp57
 70
     1
  0
XRECORD
  5
214
102
{ACAD_REACTORS
330
213
102
}
330
213
100
AcDbXrecord
280
     1
102
RTVSPropertyOp0
 70
     1
102
RTVSPropertyOp1
 70
     1
102
RTVSPropertyOp2
 70
     1
102
RTVSPropertyOp3
 70
     1
102
RTVSPropertyOp4
 70
     1
102
RTVSPropertyOp5
 70
     1
102
RTVSPropertyOp6
 70
     1
102
RTVSPropertyOp7
 70
     1
102
RTVSPropertyOp8
 70
     1
102
RTVSPropertyOp9
 70
     1
102
RTVSPropertyOp10
 70
     1
102
RTVSPropertyOp11
 70
     1
102
RTVSPropertyOp12
 70
     1
102
RTVSPropertyOp13
 70
     1
102
RTVSPropertyOp14
 70
     1
102
RTVSPropertyOp15
 70
     1
102
RTVSPropertyOp16
 70
     1
102
RTVSPropertyOp17
 70
     1
102
RTVSPropertyOp18
 70
     1
102
RTVSPropertyOp19
 70
     1
102
RTVSPropertyOp20
 70
     1
102
RTVSPropertyOp21
 70
     1
102
RTVSPropertyOp22
 70
     1
102
RTVSPropertyOp23
 70
     1
102
RTVSPropertyOp24
 70
     1
102
RTVSPropertyOp25
 70
     1
102
RTVSPropertyOp26
 70
     1
102
RTVSPropertyOp27
 70
     1
102
RTVSPropertyOp28
 70
     1
102
RTVSPropertyOp29
 70
     1
102
RTVSPropertyOp30
 70
     1
102
RTVSPropertyOp31
 70
     1
102
RTVSPropertyOp32
 70
     1
102
RTVSPropertyOp33
 70
     1
102
RTVSPropertyOp34
 70
     1
102
RTVSPropertyOp35
 70
     1
102
RTVSPropertyOp36
 70
     1
102
RTVSPropertyOp37
 70
     1
102
RTVSPropertyOp38
 70
     1
102
RTVSPropertyOp39
 70
     1
102
RTVSPropertyOp40
 70
     1
102
RTVSPropertyOp41
 70
     1
102
RTVSPropertyOp42
 70
     1
102
RTVSPropertyOp43
 70
     1
102
RTVSPropertyOp44
 70
     1
102
RTVSPropertyOp45
 70
     1
102
RTVSPropertyOp46
 70
     1
102
RTVSPropertyOp47
 70
     1
102
RTVSPropertyOp48
 70
     1
102
RTVSPropertyOp49
 70
     1
102
RTVSPropertyOp50
 70
     1
102
RTVSPropertyOp51
 70
     0
102
RTVSPropertyOp52
 70
     0
102
RTVSPropertyOp53
 70
     1
102
RTVSPropertyOp54
 70
     1
102
RTVSPropertyOp55
 70
     1
102
RTVSPropertyOp56
 70
     1
102
RTVSPropertyOp57
 70
     1
102
RTVSPost2010Prop28
280
     0
102
RTVSPost2010PropOp28
 70
     1
102
RTVSPost2010Prop29
280
     1
102
RTVSPost2010PropOp29
 70
     1
102
RTVSPost2010Prop30
280
     1
102
RTVSPost2010PropOp30
 70
     1
102
RTVSPost2010Prop31
280
     0
102
RTVSPost2010PropOp31
 70
     1
102
RTVSPost2010Prop32
280
     0
102
RTVSPost2010PropOp32
 70
     1
102
RTVSPost2010Prop33
280
     0
102
RTVSPost2010PropOp33
 70
     1
102
RTVSPost2010Prop34
280
     0
102
RTVSPost2010PropOp34
 70
     1
102
RTVSPost2010Prop35
280
     0
102
RTVSPost2010PropOp35
 70
     1
102
RTVSPost2010Prop36
280
     0
102
RTVSPost2010PropOp36
 70
     1
102
RTVSPost2010Prop37
 90
       50
102
RTVSPost2010PropOp37
 70
     1
102
RTVSPost2010Prop38
140
0.0
102
RTVSPost2010PropOp38
 70
     1
102
RTVSPost2010Prop39
140
1.0
102
RTVSPost2010PropOp39
 70
     1
102
RTVSPost2010Prop40
 90
        0
102
RTVSPost2010PropOp40
 70
     1
102
RTVSPost2010Prop41ColorIndex
 90
       18
102
RTVSPost2010Prop41ColorRGB
 90
        0
102
RTVSPost2010PropOp41
 70
     1
102
RTVSPost2010Prop42
 90
       50
102
RTVSPost2010PropOp42
 70
     1
102
RTVSPost2010Prop43
 90
        3
102
RTVSPost2010PropOp43
 70
     1
102
RTVSPost2010Prop44ColorIndex
 90
        5
102
RTVSPost2010Prop44ColorRGB
 90
      255
102
RTVSPost2010PropOp44
 70
     1
102
RTVSPost2010Prop45
280
     0
102
RTVSPost2010PropOp45
 70
     1
102
RTVSPost2010Prop46
 90
       50
102
RTVSPost2010PropOp46
 70
     1
102
RTVSPost2010Prop47
 90
       50
102
RTVSPost2010PropOp47
 70
     1
102
RTVSPost2010Prop48
 90
       50
102
RTVSPost2010PropOp48
 70
     1
102
RTVSPost2010Prop49
280
     0
102
RTVSPost2010PropOp49
 70
     1
102
RTVSPost2010Prop50
 90
       50
102
RTVSPost2010PropOp50
 70
     1
102
RTVSPost2010Prop51ColorIndex
 90
      256
102
RTVSPost2010Prop51ColorRGB
 90
-16777216
102
RTVSPost2010PropOp51
 70
     0
102
RTVSPost2010Prop52
140
1.0
102
RTVSPost2010PropOp52
 70
     0
102
RTVSPost2010Prop53
 90
        2
102
RTVSPost2010PropOp53
 70
     1
102
RTVSPost2010Prop54
  1
strokes_ogs.tif
102
RTVSPost2010PropOp54
 70
     1
102
RTVSPost2010Prop55
280
     0
102
RTVSPost2010PropOp55
 70
     1
102
RTVSPost2010Prop56
140
1.0
102
RTVSPost2010PropOp56
 70
     1
102
RTVSPost2010Prop57
140
1.0
102
RTVSPost2010PropOp57
 70
     1
  0
XRECORD
  5
206
102
{ACAD_REACTORS
330
205
102
}
330
205
100
AcDbXrecord
280
     1
102
RTVSPropertyOp0
 70
     1
102
RTVSPropertyOp1
 70
     1
102
RTVSPropertyOp2
 70
     1
102
RTVSPropertyOp3
 70
     1
102
RTVSPropertyOp4
 70
     1
102
RTVSPropertyOp5
 70
     1
102
RTVSPropertyOp6
 70
     1
102
RTVSPropertyOp7
 70
     1
102
RTVSPropertyOp8
 70
     1
102
RTVSPropertyOp9
 70
     1
102
RTVSPropertyOp10
 70
     1
102
RTVSPropertyOp11
 70
     1
102
RTVSPropertyOp12
 70
     1
102
RTVSPropertyOp13
 70
     1
102
RTVSPropertyOp14
 70
     1
102
RTVSPropertyOp15
 70
     1
102
RTVSPropertyOp16
 70
     1
102
RTVSPropertyOp17
 70
     1
102
RTVSPropertyOp18
 70
     1
102
RTVSPropertyOp19
 70
     1
102
RTVSPropertyOp20
 70
     1
102
RTVSPropertyOp21
 70
     1
102
RTVSPropertyOp22
 70
     1
102
RTVSPropertyOp23
 70
     1
102
RTVSPropertyOp24
 70
     1
102
RTVSPropertyOp25
 70
     1
102
RTVSPropertyOp26
 70
     1
102
RTVSPropertyOp27
 70
     1
102
RTVSPropertyOp28
 70
     1
102
RTVSPropertyOp29
 70
     1
102
RTVSPropertyOp30
 70
     1
102
RTVSPropertyOp31
 70
     1
102
RTVSPropertyOp32
 70
     1
102
RTVSPropertyOp33
 70
     1
102
RTVSPropertyOp34
 70
     1
102
RTVSPropertyOp35
 70
     1
102
RTVSPropertyOp36
 70
     1
102
RTVSPropertyOp37
 70
     1
102
RTVSPropertyOp38
 70
     1
102
RTVSPropertyOp39
 70
     1
102
RTVSPropertyOp40
 70
     1
102
RTVSPropertyOp41
 70
     1
102
RTVSPropertyOp42
 70
     1
102
RTVSPropertyOp43
 70
     1
102
RTVSPropertyOp44
 70
     1
102
RTVSPropertyOp45
 70
     1
102
RTVSPropertyOp46
 70
     1
102
RTVSPropertyOp47
 70
     1
102
RTVSPropertyOp48
 70
     1
102
RTVSPropertyOp49
 70
     1
102
RTVSPropertyOp50
 70
     1
102
RTVSPropertyOp51
 70
     0
102
RTVSPropertyOp52
 70
     0
102
RTVSPropertyOp53
 70
     1
102
RTVSPropertyOp54
 70
     1
102
RTVSPropertyOp55
 70
     1
102
RTVSPropertyOp56
 70
     1
102
RTVSPropertyOp57
 70
     1
102
RTVSPost2010Prop28
280
     0
102
RTVSPost2010PropOp28
 70
     1
102
RTVSPost2010Prop29
280
     1
102
RTVSPost2010PropOp29
 70
     1
102
RTVSPost2010Prop30
280
     1
102
RTVSPost2010PropOp30
 70
     1
102
RTVSPost2010Prop31
280
     0
102
RTVSPost2010PropOp31
 70
     1
102
RTVSPost2010Prop32
280
     0
102
RTVSPost2010PropOp32
 70
     1
102
RTVSPost2010Prop33
280
     0
102
RTVSPost2010PropOp33
 70
     1
102
RTVSPost2010Prop34
280
     0
102
RTVSPost2010PropOp34
 70
     1
102
RTVSPost2010Prop35
280
     0
102
RTVSPost2010PropOp35
 70
     1
102
RTVSPost2010Prop36
280
     0
102
RTVSPost2010PropOp36
 70
     1
102
RTVSPost2010Prop37
 90
       50
102
RTVSPost2010PropOp37
 70
     1
102
RTVSPost2010Prop38
140
0.0
102
RTVSPost2010PropOp38
 70
     1
102
RTVSPost2010Prop39
140
1.0
102
RTVSPost2010PropOp39
 70
     1
102
RTVSPost2010Prop40
 90
        0
102
RTVSPost2010PropOp40
 70
     1
102
RTVSPost2010Prop41ColorIndex
 90
       18
102
RTVSPost2010Prop41ColorRGB
 90
        0
102
RTVSPost2010PropOp41
 70
     1
102
RTVSPost2010Prop42
 90
       50
102
RTVSPost2010PropOp42
 70
     1
102
RTVSPost2010Prop43
 90
        3
102
RTVSPost2010PropOp43
 70
     1
102
RTVSPost2010Prop44ColorIndex
 90
        5
102
RTVSPost2010Prop44ColorRGB
 90
      255
102
RTVSPost2010PropOp44
 70
     1
102
RTVSPost2010Prop45
280
     0
102
RTVSPost2010PropOp45
 70
     1
102
RTVSPost2010Prop46
 90
       50
102
RTVSPost2010PropOp46
 70
     1
102
RTVSPost2010Prop47
 90
       50
102
RTVSPost2010PropOp47
 70
     1
102
RTVSPost2010Prop48
 90
       50
102
RTVSPost2010PropOp48
 70
     1
102
RTVSPost2010Prop49
280
     0
102
RTVSPost2010PropOp49
 70
     1
102
RTVSPost2010Prop50
 90
       50
102
RTVSPost2010PropOp50
 70
     1
102
RTVSPost2010Prop51ColorIndex
 90
      256
102
RTVSPost2010Prop51ColorRGB
 90
-16777216
102
RTVSPost2010PropOp51
 70
     0
102
RTVSPost2010Prop52
140
1.0
102
RTVSPost2010PropOp52
 70
     0
102
RTVSPost2010Prop53
 90
        2
102
RTVSPost2010PropOp53
 70
     1
102
RTVSPost2010Prop54
  1
strokes_ogs.tif
102
RTVSPost2010PropOp54
 70
     1
102
RTVSPost2010Prop55
280
     0
102
RTVSPost2010PropOp55
 70
     1
102
RTVSPost2010Prop56
140
1.0
102
RTVSPost2010PropOp56
 70
     1
102
RTVSPost2010Prop57
140
1.0
102
RTVSPost2010PropOp57
 70
     1
  0
XRECORD
  5
226
102
{ACAD_REACTORS
330
225
102
}
330
225
100
AcDbXrecord
280
     1
102
RTVSPropertyOp0
 70
     1
102
RTVSPropertyOp1
 70
     1
102
RTVSPropertyOp2
 70
     1
102
RTVSPropertyOp3
 70
     1
102
RTVSPropertyOp4
 70
     1
102
RTVSPropertyOp5
 70
     1
102
RTVSPropertyOp6
 70
     1
102
RTVSPropertyOp7
 70
     1
102
RTVSPropertyOp8
 70
     1
102
RTVSPropertyOp9
 70
     1
102
RTVSPropertyOp10
 70
     1
102
RTVSPropertyOp11
 70
     1
102
RTVSPropertyOp12
 70
     1
102
RTVSPropertyOp13
 70
     1
102
RTVSPropertyOp14
 70
     1
102
RTVSPropertyOp15
 70
     1
102
RTVSPropertyOp16
 70
     1
102
RTVSPropertyOp17
 70
     1
102
RTVSPropertyOp18
 70
     1
102
RTVSPropertyOp19
 70
     1
102
RTVSPropertyOp20
 70
     1
102
RTVSPropertyOp21
 70
     1
102
RTVSPropertyOp22
 70
     1
102
RTVSPropertyOp23
 70
     1
102
RTVSPropertyOp24
 70
     1
102
RTVSPropertyOp25
 70
     1
102
RTVSPropertyOp26
 70
     1
102
RTVSPropertyOp27
 70
     1
102
RTVSPropertyOp28
 70
     1
102
RTVSPropertyOp29
 70
     1
102
RTVSPropertyOp30
 70
     1
102
RTVSPropertyOp31
 70
     1
102
RTVSPropertyOp32
 70
     1
102
RTVSPropertyOp33
 70
     1
102
RTVSPropertyOp34
 70
     1
102
RTVSPropertyOp35
 70
     1
102
RTVSPropertyOp36
 70
     1
102
RTVSPropertyOp37
 70
     1
102
RTVSPropertyOp38
 70
     1
102
RTVSPropertyOp39
 70
     1
102
RTVSPropertyOp40
 70
     1
102
RTVSPropertyOp41
 70
     1
102
RTVSPropertyOp42
 70
     1
102
RTVSPropertyOp43
 70
     1
102
RTVSPropertyOp44
 70
     1
102
RTVSPropertyOp45
 70
     1
102
RTVSPropertyOp46
 70
     1
102
RTVSPropertyOp47
 70
     1
102
RTVSPropertyOp48
 70
     1
102
RTVSPropertyOp49
 70
     1
102
RTVSPropertyOp50
 70
     1
102
RTVSPropertyOp51
 70
     0
102
RTVSPropertyOp52
 70
     0
102
RTVSPropertyOp53
 70
     1
102
RTVSPropertyOp54
 70
     1
102
RTVSPropertyOp55
 70
     1
102
RTVSPropertyOp56
 70
     1
102
RTVSPropertyOp57
 70
     1
102
RTVSPost2010Prop28
280
     0
102
RTVSPost2010PropOp28
 70
     1
102
RTVSPost2010Prop29
280
     1
102
RTVSPost2010PropOp29
 70
     1
102
RTVSPost2010Prop30
280
     1
102
RTVSPost2010PropOp30
 70
     1
102
RTVSPost2010Prop31
280
     0
102
RTVSPost2010PropOp31
 70
     1
102
RTVSPost2010Prop32
280
     0
102
RTVSPost2010PropOp32
 70
     1
102
RTVSPost2010Prop33
280
     0
102
RTVSPost2010PropOp33
 70
     1
102
RTVSPost2010Prop34
280
     0
102
RTVSPost2010PropOp34
 70
     1
102
RTVSPost2010Prop35
280
     0
102
RTVSPost2010PropOp35
 70
     1
102
RTVSPost2010Prop36
280
     0
102
RTVSPost2010PropOp36
 70
     1
102
RTVSPost2010Prop37
 90
       50
102
RTVSPost2010PropOp37
 70
     1
102
RTVSPost2010Prop38
140
0.0
102
RTVSPost2010PropOp38
 70
     1
102
RTVSPost2010Prop39
140
1.0
102
RTVSPost2010PropOp39
 70
     1
102
RTVSPost2010Prop40
 90
        0
102
RTVSPost2010PropOp40
 70
     1
102
RTVSPost2010Prop41ColorIndex
 90
       18
102
RTVSPost2010Prop41ColorRGB
 90
        0
102
RTVSPost2010PropOp41
 70
     1
102
RTVSPost2010Prop42
 90
       50
102
RTVSPost2010PropOp42
 70
     1
102
RTVSPost2010Prop43
 90
        3
102
RTVSPost2010PropOp43
 70
     1
102
RTVSPost2010Prop44ColorIndex
 90
        5
102
RTVSPost2010Prop44ColorRGB
 90
      255
102
RTVSPost2010PropOp44
 70
     1
102
RTVSPost2010Prop45
280
     0
102
RTVSPost2010PropOp45
 70
     1
102
RTVSPost2010Prop46
 90
       50
102
RTVSPost2010PropOp46
 70
     1
102
RTVSPost2010Prop47
 90
       50
102
RTVSPost2010PropOp47
 70
     1
102
RTVSPost2010Prop48
 90
       50
102
RTVSPost2010PropOp48
 70
     1
102
RTVSPost2010Prop49
280
     0
102
RTVSPost2010PropOp49
 70
     1
102
RTVSPost2010Prop50
 90
       50
102
RTVSPost2010PropOp50
 70
     1
102
RTVSPost2010Prop51ColorIndex
 90
      256
102
RTVSPost2010Prop51ColorRGB
 90
-16777216
102
RTVSPost2010PropOp51
 70
     0
102
RTVSPost2010Prop52
140
1.0
102
RTVSPost2010PropOp52
 70
     0
102
RTVSPost2010Prop53
 90
        2
102
RTVSPost2010PropOp53
 70
     1
102
RTVSPost2010Prop54
  1
strokes_ogs.tif
102
RTVSPost2010PropOp54
 70
     1
102
RTVSPost2010Prop55
280
     0
102
RTVSPost2010PropOp55
 70
     1
102
RTVSPost2010Prop56
140
1.0
102
RTVSPost2010PropOp56
 70
     1
102
RTVSPost2010Prop57
140
1.0
102
RTVSPost2010PropOp57
 70
     1
  0
ENDSEC
  0
EOF
